PrimaNota.ru - самый крупный в мире бесплатный архив песенных текстов, аккордов, табулатур и нот


Gyroscope - Hollow Like Cheyenne - текст песни, таба, бас-таба, видео

Регистрация Запомнить меня
Войти через:  Facebook Google Twitter Vk Yandex Mail.ru

Gyroscope - Hollow Like Cheyenne - текст песни, таба, бас-таба, видео

Печатать
Просмотров: 127
-------------------------------------------------------------------------------
                             HOLLOW LIKE CHEYENNE - Gyroscope
-------------------------------------------------------------------------------
Tabbed by: Refugeesus
Email: www.myspace.com/sinistertones

Tuning: Standard


*F5

e |-------------------|
B |-------------------|
G |--10---------------|
D |--10---------------|
A |--8----------------|
E |-------------------|

ACOUSTIC GUITAR

A#5       C5              G5
     Ever noticed how our roles have changed?

A#5              C5              G5
     From what i gather any - way.

A#5       F5              G5
Hear me, hear me          punished for silence

A#5       F5              G5
Hear me, hear me          should i die down?

D5  *F5   A#5       A5           G5
Woh  oh   oh
          Ill push aside these fears you left me

D5  *F5   A#5          A5        G5
Woh  oh   oh
          Ill burn the signs in secrecy

D5  *F5   A#5           A5       G5
Woh  oh   oh
          You light the sky with tragic beauty
D5  *F5   A#5           A5       G5
Woh  oh   oh
          Now drown it all    in secrecy


METAL GUITAR
with some rythym guys!

e|------|-----------------| 
B|------|-----------------| 
G|------|-----------------| this is chord progression, not what's played
D|----2-|3-5---2----3-5---| yes, lazy man :P
A|--5-0-|1-3-5-0----1-3-5-| 
E|--3---|----3----------3-| 


A#5       C5              G5
     Ever noticed how our roles have changed?

A#5              C5              G5
     From what i gather any - way.

A#5       F5              G5
Hear me, hear me          punished for silence

A#5       F5              G5
Hear me, hear me          should i die down?

D5  *F5   A#5       A5           G5

          Ill push aside these fears you left me

D5  *F5   A#5          A5        G5

          Ill burn the signs in secrecy

D5  *F5   A#5           A5       G5

          You light the sky with tragic beauty
D5  *F5   A#5           A5       G5

          Now drown it all in secrecy


               In secrecy...

e|---------|
B|---------| 
G|---------|
D|-----3-5-|  
A|-5-7-----|
E|---------|

e|--------------------------------------------------------------------|
B|--------------------------------------------------------------------| x2
G|-------------------------------------------------------------------*|
D|--3-3-3-3-3-3-3-3-3-3-3-3-3-3-2-2-----------------------------(2-2)-|(*)1st 
A|--1-1-1-1-1-1-1-1-1-1-1-1-1-1-0-0-5-5-5-5-5-5-5-5-5-5-5-5-5-5-(0-0)-| only
E|----------------------------------3-3-3-3-3-3-3-3-3-3-3-3-3-3-------|

02:08

BRIDGE

D5  F5     E5    D5  F5  E5

A5......


A#5       C5              G5
     Ever noticed how our roles have changed?

A#5              C5              G5
     From what i gather any - way.

A#5       F5              G5
Hear me, hear me          punished for silence

A#5       F5              G5
Hear me, hear me          should i die down?

D5  *F5   A#5       A5           G5

          Ill push aside these fears you left me

D5  *F5   A#5          A5        G5

          Ill burn the signs in secrecy

D5  *F5   A#5           A5       G5

          You light the sky with tragic beauty
D5  *F5   A#5           A5       G5

          Now drown it all in secrecy


               In secrecy,   in secrecy

e|---------||-----------------------------|
B|---------||-----------------------------|  
G|---------||-----------------------------|
D|-----3-5-||--3-3-3-3-3-3-3-3-3-3-3-3-3-3|
A|-5-7-----||--1-1-1-1-1-1-1-1-1-1-1-1-1-1|
E|---------||-----------------------------|

e|-----------------------------------------------------------------|
B|-----------------------------------------------------------------|
G|-----------------------------------------------------------------|
D|---------------------------------3-3-3-3-3-3-3-3-5-5-5-5-5-5-5-5-|
A|-5-5-5-5-5-5-5-5-7-7-7-7-7-7-7-7---------------------------------|
E|-----------------------------------------------------------------|

Best listen to the timing then trust my tabbing :P

e|-----------------------------------------------|
B|-----------------------------------------------|
G|-3-3-3--3-3-3--3-3-3-5-5---------------------2-|
D|-3-3-3--3-3-3--3-3-3-5-5-5-5-5--5-5-5--5-5-5-2-| til end
A|-1-1-1--1-1-1--1-1-1-3-3-5-5-5--5-5-5--5-5-5-0-| with diff
E|-------------------------3-3-3--3-3-3--3-3-3---| strumming







Добавлено: 02.05.2012
Другие материалы по этой песне:

Страница создана 25.02.2012
http://primanota.ru/gyroscope/hollow-like-cheyenne-chords.htm
Привет, Гость.
Предлагаем пройти революционный курс по гитаре.
Подарок от PrimaNota.Ru, забирай!