PrimaNota.ru - самый крупный в мире бесплатный архив песенных текстов, аккордов, табулатур и нот


Gyroscope - Fire Away - текст песни, таба, видео

Регистрация Запомнить меня
Войти через:  Facebook Google Twitter Vk Yandex Mail.ru

Gyroscope - Fire Away - текст песни, таба, видео

Печатать
Просмотров: 203
Уроки эстрадного вокала в Санкт-Петербурге
-------------------------------------------------------------------------------
                             FIRE AWAY - Gyroscope
-------------------------------------------------------------------------------
Tabbed by: orgasmickey
Tuning: DADGBe

Listen to the song for rhythm and order.

[Intro]

GTR1
e|-------------------------------------------------------|
B|-------------------------------------------------------|
G|-11--11-11-11---11-11-11---11-11--9--9-9-9--9-9-9--9-9-|
D|-x---x--x--x----x--x--x----x--x---x--x-x-x--x-x-x--x-x-|
A|-7---7--7--7----7--7--7----7--7---7--7-7-7--7-7-7--7-7-|
D|-------------------------------------------------------|

GTR2
e|-------------------------------------------------------|
B|-------------------------------------------------------|
G|-4---4--4--4----4--4--4----4--4---4--4-4-4--4-4-4--4-4-|
D|-2---2--2--2----2--2--2----2--2---2--2-2-2--2-2-2--2-2-|
A|-2---2--2--2----2--2--2----2--2---2--2-2-2--2-2-2--2-2-|
D|-2---2--2--2----2--2--2----2--2---2--2-2-2--2-2-2--2-2-|

[Chorus]

GTR1 (just the chords, same basic rhythm as intro)
e|-----------------------------------------------------------|
B|-----------------------------------------------------------|
G|----4----------------4---------------8----------4----------|
D|----2----------------2---------------6----------2----------|
A|----2----------------2---------------4----------0----------|
D|----2----------------2-------------------------------------|

      "Just fire away! Just fire away! So anyway, So fire away!"

GTR2

e|-----------------------------------------------------------|
B|-----------------------------------------------------------|
G|---11----------------9---------------8----------4----------|
D|---x-----------------x---------------6----6-----2----------|
A|---7-----------------7---------------4----4-----0----------|
D|------------------------------------------4----------------|

[Verse]

e|-----------------------------------------------------------|
B|-----------------------------------------------------------|
G|---8-------------------------------6-----------------------|
D|---9-------------------------------7-----------------------|
A|---9-------------------------------7-----------------------|
D|---9-------------------------------7-----------------------|

    "How deep can I just cut away?   cut away...."
    "until I hit something of...     importance.."
    
e|------------------------------------------------------------|
B|------------------------------------------------------------|
G|------------------------------------------------------------|
D|---4--------------------------------------------------------|
A|---2--------------------------------------------------------|
D|---2--------------------------------------------------------|
 
       "would you feel it.. anyway..."

[bridge]

e|-----------------------------------------------------|
B|-----------------------------------------------------|
G|---9----------------6---------9-------4--------------|
D|---7----------------4---------7-------2--------------|
A|---7----------------4---------7-------2--------------|
D|---7----------------4---------7-------2--------------|

     "If only you were me and I was..  some one.."
     "who could now relay this right back to us.."

[Chorus/End]

| /  slide up
| \  slide down
| h  hammer-on
| p  pull-off
| ~  vibrato
| +  harmonic
| x  Mute note
===============================================================================
Добавлено: 31.03.2012
Другие материалы по этой песне:
  • Аккорды и текст

Страница создана 31.03.2012
http://primanota.ru/gyroscope/fire-away-chords.htm
Привет, Гость.
Предлагаем пройти революционный курс по гитаре.
Подарок от PrimaNota.Ru, забирай!