PrimaNota.ru - самый крупный в мире бесплатный архив песенных текстов, аккордов, табулатур и нот


Gyroscope - Fifty500 - таба, видео

Регистрация Запомнить меня
Войти через:  Facebook Google Twitter Vk Yandex Mail.ru

Gyroscope - Fifty500 - таба, видео

Печатать
Просмотров: 122
Уроки эстрадного вокала в Санкт-Петербурге
Fifty500 - Gyroscope
Tabbed By Matt Heal
Email : mattheal @ gmail.com

Key * = Palm Mute
    ~ = Vibrato
    # = Tremelo Pick    

Intro - Zok w/ Chorus

e|-1---0---1---0---1-0-3-1--|
b|-1---1---1---1---1-1-3-1--|
g|-2---2---2---2---2-2-0-2--|
d|-3---2---3---2---3-2-0-3--|
a|-----0-------0-----0-2-3--|
E|---------------------3-1--|

main riff
Zok
e|-------------------------------------------------------------|
b|-------------------------------------------------------3-----|
g|-7777-5-5-5--5---7777-5-5-5--5---7777-5-5-5--5------5---5----|
d|-------7-7--7-7--------7-7--7-7--------7-7--5-5--3-3-3---3---|
a|-------------------------------------------------------------|
E|-------------------------------------------------------------|

Dan - Palm Muted
e|--------------------------------------------------------------------|
b|--------------------------------------------------------------------|
g|-2-2-2-2-2-2-2-2--5-5-5-5-5-5-5-5--2-2-2-2-2-2-2-2--5-5-5-5-5-5-5-5-|
d|-3-3-3-3-3-3-3-3--7-7-7-7-7-7-7-7--3-3-3-3-3-3-3-3--7-7-7-7-7-7-7-7-|
a|-3-3-3-3-3-3-3-3--7-7-7-7-7-7-7-7--3-3-3-3-3-3-3-3--7-7-7-7-7-7-7-7-|
E|-1-1-1-1-1-1-1-1--5-5-5-5-5-5-5-5--1-1-1-1-1-1-1-1--5-5-5-5-5-5-5-5-|
pm ***************  *************** **************** ****************


Zok
e|------------------0-0-0----|
b|------------------1-0-1----|
g|-2-2-2-2-2-2-2-2--2-2-2----| x 2
d|-3-3-3-3-3-3-3-3--2-2-2----|
a|-3-3-3-3-3-3-3-3--0-0-0----|
E|-1-1-1-1-1-1-1-1-----------|
pm ***************


pre Chorus

Both
e|---------------------------------------------------------------------|
b|---------------------------------------------------------------------|
g|-2-2-2-2-2-2-2-2--5-5-5-5-2-2-2-2---2-2-2-2-2-2-2-2--5-5-5-5-2-2-2-2-|
d|-3-3-3-3-3-3-3-3--7-7-7-7-4-4-4-4---3-3-3-3-3-3-3-3--7-7-7-7-4-4-4-4-|
a|-3-3-3-3-3-3-3-3--7-7-7-7-4-4-4-4---3-3-3-3-3-3-3-3--7-7-7-7-4-4-4-4-|
E|-1-1-1-1-1-1-1-1--5-5-5-5-3-3-3-3---1-1-1-1-1-1-1-1--5-5-5-5-3-3-3-3-|

e|-5-5-5-5-5-5-5-5--------------------|
b|-6-6-6-6-6-6-6-6--------------------|
g|-7-7-7-7-7-7-7-7--2-2-2-2-2-2-2-2---|
d|-7-7-7-7-7-7-7-7--3-3-3-3-3-3-3-3---|
a|-5-5-5-5-5-5-5-5--3-3-3-3-3-3-3-3---|
E|------------------1-1-1-1-1-1-1-1---|


Chorus

Zok

e|-----------------------------------|
b|-----------------------------------|
g|-----------------------------------|
d|-10~--12~--9~-10~--7~--9~--5~-5h7--| x2
a|-----------------------------------|
E|-----------------------------------|

Then 
e|-------------------------------------------------------------|
b|-------------------------------------------------------3-----|
g|-7777-5-5-5--5---7777-5-5-5--5---7777-5-5-5--5------5---5----|
d|-------7-7--7-7--------7-7--7-7--------7-7--5-5--3-3-3---3---|
a|-------------------------------------------------------------|
E|-------------------------------------------------------------|

Dan

e|--------------------------------------------------------------------|
b|--------------------------------------------------------------------|
g|-2-2-2-2-2-2-2-2--5-5-5-5-5-5-5-5--2-2-2-2-2-2-2-2--5-5-5-5-5-5-5-5-|
d|-3-3-3-3-3-3-3-3--7-7-7-7-7-7-7-7--3-3-3-3-3-3-3-3--7-7-7-7-7-7-7-7-|
a|-3-3-3-3-3-3-3-3--7-7-7-7-7-7-7-7--3-3-3-3-3-3-3-3--7-7-7-7-7-7-7-7-|
E|-1-1-1-1-1-1-1-1--5-5-5-5-5-5-5-5--1-1-1-1-1-1-1-1--5-5-5-5-5-5-5-5-|


Bridge

e|-5-5-5-5-5-5-5-5---------------------------------------|
b|-6-6-6-6-6-6-6-6---------------------------------------|
g|-7-7-7-7-7-7-7-7--6-6-6-5-5-5--------6-6-6-5-5-5-------|
d|-7-7-7-7-7-7-7-7--7-7-7-5-5-5-5-5-5--7-7-7-5-5-5-5-5-5-| x 2
a|-5-5-5-5-5-5-5-5--7-7-7-3-3-3-5-5-5--7-7-7-3-3-3-5-5-5-|
E|------------------5-5-5-------3-3-3--5-5-5-------3-3-3-|

e|-5-5-5-5-5-5-5-5--------------------|
b|-6-6-6-6-6-6-6-6--------------------|
g|-7-7-7-7-7-7-7-7--2-2-2-2-2-2-2-2---|
d|-7-7-7-7-7-7-7-7--3-3-3-3-3-3-3-3---|
a|-5-5-5-5-5-5-5-5--3-3-3-3-3-3-3-3---|
E|------------------1-1-1-1-1-1-1-1---|



Chorus

Zok

e|-----------------------------------|
b|-----------------------------------|
g|-----------------------------------|
d|-10~--12~--9~-10~--7~--9~--5~-5h7--| x2
a|-----------------------------------|
E|-----------------------------------|

Then 
e|-------------------------------------------------------------|
b|-------------------------------------------------------3-----|
g|-7777-5-5-5--5---7777-5-5-5--5---7777-5-5-5--5------5---5----|
d|-------7-7--7-7--------7-7--7-7--------7-7--5-5--3-3-3---3---|
a|-------------------------------------------------------------|
E|-------------------------------------------------------------|

Dan

e|--------------------------------------------------------------------|
b|--------------------------------------------------------------------|
g|-2-2-2-2-2-2-2-2--5-5-5-5-5-5-5-5--2-2-2-2-2-2-2-2--5-5-5-5-5-5-5-5-|
d|-3-3-3-3-3-3-3-3--7-7-7-7-7-7-7-7--3-3-3-3-3-3-3-3--7-7-7-7-7-7-7-7-|
a|-3-3-3-3-3-3-3-3--7-7-7-7-7-7-7-7--3-3-3-3-3-3-3-3--7-7-7-7-7-7-7-7-|
E|-1-1-1-1-1-1-1-1--5-5-5-5-5-5-5-5--1-1-1-1-1-1-1-1--5-5-5-5-5-5-5-5-|

SOLO

e|---12p0-----10p0----8p0----5p0----3p0----------|
b|-/------10-------8------5------3------1\3------|
g|------------------------------------------3\4--|
d|-----------------------------------------------|
a|-----------------------------------------------|
E|-----------------------------------------------|

e|--------------------------------|
b|-/-17#-15#-19#-13#-17#-15#-21#--|
g|--------------------------------|
d|--------------------------------|
a|--------------------------------|
E|--------------------------------|

Dan continues with chorus chords

Post Solo

Zok

e|----------------------------------------------------------------------------------|
b|----------------------------------------------------------------------------------|
g|----------------------------------------------------------------------------------|
d|----------------------------------------------------------------------------------|
a|-0-0-0-3-3-3------0-0-0-3-3-3-----5-5-5-5-5-3-5-3---0-0-0-3-3-3----5-5-5-5-3------|
E|-------------3~---------------3~--------------------------------3~-----------3-1--|

Pre Chorus
Both guitars
e|-5-5-5-5-5-5-5-5--------------------|
b|-6-6-6-6-6-6-6-6--------------------|
g|-7-7-7-7-7-7-7-7--2-2-2-2-2-2-2-2---|
d|-7-7-7-7-7-7-7-7--3-3-3-3-3-3-3-3---|
a|-5-5-5-5-5-5-5-5--3-3-3-3-3-3-3-3---|
E|------------------1-1-1-1-1-1-1-1---|


Chorus

Zok

e|-----------------------------------|
b|-----------------------------------|
g|-----------------------------------|
d|-10~--12~--9~-10~--7~--9~--5~-5h7--| x2
a|-----------------------------------|
E|-----------------------------------|

Then 
e|-------------------------------------------------------------|
b|-------------------------------------------------------3-----|
g|-7777-5-5-5--5---7777-5-5-5--5---7777-5-5-5--5------5---5----|
d|-------7-7--7-7--------7-7--7-7--------7-7--5-5--3-3-3---3---|
a|-------------------------------------------------------------|
E|-------------------------------------------------------------|

Dan

e|--------------------------------------------------------------------|
b|--------------------------------------------------------------------|
g|-2-2-2-2-2-2-2-2--5-5-5-5-5-5-5-5--2-2-2-2-2-2-2-2--5-5-5-5-5-5-5-5-|
d|-3-3-3-3-3-3-3-3--7-7-7-7-7-7-7-7--3-3-3-3-3-3-3-3--7-7-7-7-7-7-7-7-|
a|-3-3-3-3-3-3-3-3--7-7-7-7-7-7-7-7--3-3-3-3-3-3-3-3--7-7-7-7-7-7-7-7-|
E|-1-1-1-1-1-1-1-1--5-5-5-5-5-5-5-5--1-1-1-1-1-1-1-1--5-5-5-5-5-5-5-5-|


end with zok just playing the lead bit
Добавлено: 02.05.2012
Другие материалы по этой песне:
  • Аккорды и текст

Страница создана 02.05.2012
http://primanota.ru/gyroscope/fifty500-chords.htm
Привет, Гость.
Предлагаем пройти революционный курс по гитаре.
Подарок от PrimaNota.Ru, забирай!