PrimaNota.ru - самый крупный в мире бесплатный архив песенных текстов, аккордов, табулатур и нот


Gyroscope - Driving For The Storm - текст песни, таба, видео

Регистрация Запомнить меня
Войти через:  Facebook Google Twitter Vk Yandex Mail.ru

Gyroscope - Driving For The Storm - текст песни, таба, видео

Печатать
Просмотров: 119
----------------------------------------------------------------------------
                   DRIVING FOR THE STORM - GYROSCOPE
----------------------------------------------------------------------------
 Notes
/ = Slide Up
\ = Slide Down
^ = Bend Up

Tabbed by: Rhysie C
Email: chicken_tonight24@hotmail.com

Tuning: EADGBe

GUITAR 1: Dan

Intro
e|-------------------------------------------------|
B|-------------------------------------------------|
G|-------------------------------------------------|
D|-8888--888--888--888--555--555--555--5-----------|
A|-8888--888--888--888--555--555--555--5-----------|
E|-6666--666--666--666--333--333--333--3////15\\\\-|

e|-------------------------------------|
B|-------------------------------------|
G|-------------------------------------|
D|-8888888888888888--5555555555555555--|   X2
A|-8888888888888888--5555555555555555--|
E|-6666666666666666--3333333333333333--|

Verse: All Palm Muted
e|-------------------------------------|
B|-------------------------------------|
G|-------------------------------------|
D|-33333333-22222222-77777777-55555555-| X2
A|-11111111-00000000-55555555-33333333-|
E|-------------------------------------|

e|----------------------------------------------------------|
B|----------------------------33333333^(gradually bend up)--|
G|----------------------------------------------------------|
D|-33333333333333333333333333-------------------------------|
A|-11111111111111111111111111-------------------------------|
E|----------------------------------------------------------|
PM.......................(slowly release)

Pre-Chorus
e|--------------------------------------|
B|--------------------------------------|
G|--------------------------------------|
D|--8888888888888888--5555555555555555--|
A|--8888888888888888--5555555555555555--|
E|--6666666666666666--3333333333333333--|

e|---------------------------------------0---------|
B|---------------------------------------0---------|
G|---------------------------------------0---------|
D|-8888--888------------555--555---------0---------|
A|-8888--888------------555--555-------------------|
E|-6666--666------12\\\-333--333-------------------|

Chorus
e|--------------------------------------|
B|--------------------------------------|
G|--------------------------------------|
D|--8888888888888888--5555555555555555--| X2
A|--8888888888888888--5555555555555555--|
E|--6666666666666666--3333333333333333--|

e|--------------------------------------|
B|--------------------------------------|
G|--------------------------------------|
D|-8888--888------------555--555--------|
A|-8888--888------------555--555--------|
E|-6666--666------12\\\-333--333--------|

Verse: All Palm Muted
e|-------------------------------------|
B|-------------------------------------|
G|-------------------------------------|
D|-33333333-22222222-77777777-55555555-| X2
A|-11111111-00000000-55555555-33333333-|
E|-------------------------------------|

e|----------------------------------------------------------|
B|----------------------------33333333^(gradually bend up)--|
G|----------------------------------------------------------|
D|-33333333333333333333333333-------------------------------|
A|-11111111111111111111111111-------------------------------|
E|----------------------------------------------------------|
PM.......................(slowly release)

Pre-Chorus
e|--------------------------------------|
B|--------------------------------------|
G|--------------------------------------|
D|--8888888888888888--5555555555555555--|
A|--8888888888888888--5555555555555555--|
E|--6666666666666666--3333333333333333--|

e|---------------------------------------0---------|
B|---------------------------------------0---------|
G|---------------------------------------0---------|
D|-8888--888------------555--555---------0---------|
A|-8888--888------------555--555-------------------|
E|-6666--666------12\\\-333--333-------------------|

Chorus
e|--------------------------------------|
B|--------------------------------------|
G|--------------------------------------|
D|--8888888888888888--5555555555555555--| X2
A|--8888888888888888--5555555555555555--|
E|--6666666666666666--3333333333333333--|

Solo
e|------------------------------------|
B|------------------------------------|
G|-77777777-55555555-3333333333333333-|
D|-77777777-55555555-3333333333333333-|
A|-55555555-33333333-1111111111111111-|
E|------------------------------------|
                                          x2
e|------------------------------------|
B|------------------------------------|
G|-77777777-55555555------------------|
D|-77777777-55555555-5555555555555555-|
A|-55555555-33333333-5555555555555555-|
E|-------------------3333333333333333-|

Pre Chorus
e|-------------------------------------|
B|-------------------------------------|
G|-------------------------------------|
D|-8888--888------------555--555--555--|
A|-8888--888------------555--555--555--|
E|-6666--666------12\\\-333--333--333--|

Chorus
e|--------------------------------------|
B|--------------------------------------|
G|--------------------------------------|
D|--8888888888888888--5555555555555555--| X2
A|--8888888888888888--5555555555555555--|
E|--6666666666666666--3333333333333333--|

e|--------------------------------------------|
B|--------------------------------------------|
G|--------------------------------------------|
D|--88888888888810101010-55555555555510101010-| X2
A|--88888888888810101010-55555555555510101010-|
E|--6666666666668-8-8-8--3333333333338-8-8-8--|

Outro
e|------------|
B|------------|
G|------------|
D|-8888--888--|
A|-8888--888--|
E|-6666--666\\|

GUITAR 2: Zoc

e|-------------------------------------------------------------------------|
B|-------------------------------------------------------------------------|
G|-10101010---9-9-9----101010---9-9-9----7-7-7----6-6-6----7-7-7---4-4-4-4-|
D|-------------------------------------------------------------------------|
A|-8-8-8-8----7-7-7----8-8-8----7-7-7----5-5-5----4-4-4----5-5-5---6-6-6-6-|
E|-------------------------------------------------------------------------|

e|-----------------------------------------------------------------|
B|-----------------------------------------------------------------|
G|-10101010109-9-9-9-101010109-9-9-7-7-7-7-7-6-6-6-6-7-7-7-7-4-4-4-|
D|-----------------------------------------------------------------| X2
A|-8-8-8-8-8-7-7-7-7-8-8-8-8-7-7-7-5-5-5-5-5-4-4-4-4-5-5-5-5-6-6-6-|
E|-----------------------------------------------------------------|

Verse
e|----------------------|
B|--10----10----11----8-|
G|--10----10----10----9-|
D|----------------------| X2
A|----------------------|
E|----------------------|

e|-------------------------------------------------------------|
B|----10----10----10---10---10---10----------------------------|
G|--10----10----10---10---10---10---10-------------------------|
D|---------------------------------------7---7---77777777^-----|
A|-----------------------------------------8---8---------------|
E|-------------------------------------------------------------|

Pre Chorus
e|------------------------------------------------------------------|
B|------------------------------------------------------------------|
G|--101010101010101010101010101010107-7-7-7-7-7-7-7-7-7-7-7-7-7-7-7-|
D|------------------------------------------------------------------|
A|--8-8-8-8-8-8-8-8-8-8-8-8-8-8-8-8-5-5-5-5-5-5-5-5-5-5-5-5-5-5-5-5-|
E|------------------------------------------------------------------|

e|------------------------------------------------------------0-|
B|------------------------------------------------------------0-|
G|-10101010---9-9-9--------------7-7-7----6-6-6---------------0-|
D|------------------------------------------------------------0-|
A|-8-8-8-8----7-7-7--------------5-5-5----4-4-4-----------------|
E|------------------------12///---------------------------------|

Chorus
e|-----------------------------------------------------------------|
B|-----------------------------------------------------------------|
G|-101010101010101010101010101010107-7-7-7-7-7-7-7-7-7-7-7-7-7-7-7-|
D|-----------------------------------------------------------------| X2
A|-8-8-8-8-8-8-8-8-8-8-8-8-8-8-8-8-5-5-5-5-5-5-5-5-5-5-5-5-5-5-5-5-|
E|-----------------------------------------------------------------|

e|----------------------------------------------|
B|----------------------------------------------|
G|-10101010---9-9-9--------------7-7-7----6-6-6-|
D|----------------------------------------------|
A|-8-8-8-8----7-7-7--------------5-5-5----4-4-4-|
E|------------------------12///-----------------|

Verse
e|----------------------|
B|--10----10----11----8-|
G|--10----10----10----9-|
D|----------------------| X2
A|----------------------|
E|----------------------|

e|-------------------------------------------------------------|
B|----10----10----10---10---10---10----------------------------|
G|--10----10----10---10---10---10---10-------------------------|
D|---------------------------------------7---7---77777777^-----|
A|-----------------------------------------8---8---------------|
E|-------------------------------------------------------------|

Pre Chorus
e|------------------------------------------------------------0-|
B|------------------------------------------------------------0-|
G|-10101010---9-9-9--------------7-7-7----6-6-6---------------0-|
D|------------------------------------------------------------0-|
A|-8-8-8-8----7-7-7--------------5-5-5----4-4-4-----------------|
E|------------------------12///---------------------------------|

Chorus
e|-----------------------------------------------------------------|
B|-----------------------------------------------------------------|
G|-10101010109-9-9-9-101010109-9-9-7-7-7-7-7-6-6-6-6-7-7-7-7-4-4-4-|
D|-----------------------------------------------------------------| X2
A|-8-8-8-8-8-7-7-7-7-8-8-8-8-7-7-7-5-5-5-5-5-4-4-4-4-5-5-5-5-6-6-6-|
E|-----------------------------------------------------------------|

Solo
e|-------------------------|
B|-13-11-10----11-10-------|
G|----------12-------10-12-|
D|-------------------------| X10
A|-------------------------|
E|-------------------------|
  Tremelo 11's
e|------------------------|
B|--111111-10-----10------|
G|------------10------10--|
D|------------------------|
A|------------------------|
E|------------------------|

e|-------------------------------------------|
B|--11--10-----10------13-11-10----11-10-----|
G|---------10-----10------------12-------10--|
D|-------------------------------------------|
A|-------------------------------------------|
E|-------------------------------------------|

e|----------------------------------------------------------------------|
B|--11--10-----10-------------------------------13-13-13-13-13-13-13-13-|
G|---------10-----10-----7--7--7--7-10-10-10-10-10-10-10-10-10-10-10-10-|
D|----------------------------------------------------------------------|
A|----------------------------------------------------------------------|
E|----------------------------------------------------------------------|

Pre Chorus
e|-------------------------------------------------------|
B|-------------------------------------------------------|
G|-10101010---9-9-9--------------7-7-7----6-6-6----5-5-5-|
D|-------------------------------------------------------|
A|-8-8-8-8----7-7-7--------------5-5-5----4-4-4----7-7-7-|
E|------------------------12///--------------------------|

Chorus
e|-----------------------------------------------------------------|
B|-----------------------------------------------------------------|
G|-101010101010101010101010101010107-7-7-7-7-7-7-7-7-7-7-7-7-7-7-7-|
D|-----------------------------------------------------------------| X2
A|-8-8-8-8-8-8-8-8-8-8-8-8-8-8-8-8-5-5-5-5-5-5-5-5-5-5-5-5-5-5-5-5-|
E|-----------------------------------------------------------------|

e|-------------------------|
B|-13-11-10----11-10-------|
G|----------12-------10-12-|
D|-------------------------| X8
A|-------------------------|
E|-------------------------|

Outro
e|--------------------|
B|--------------------|
G|-10101010---9-9-9---|
D|--------------------|
A|-8-8-8-8----7-7-7///|
E|--------------------|
Добавлено: 27.03.2012
Другие материалы по этой песне:

Страница создана 27.03.2012
http://primanota.ru/gyroscope/driving-for-the-storm-chords.htm
Привет, Гость.
Предлагаем пройти революционный курс по гитаре.
Подарок от PrimaNota.Ru, забирай!