PrimaNota.ru - самый крупный в мире бесплатный архив песенных текстов, аккордов, табулатур и нот


Gyroscope - Chapter 13 - таба, видео

Регистрация Запомнить меня
Войти через:  Facebook Google Twitter Vk Yandex Mail.ru

Gyroscope - Chapter 13 - таба, видео

Печатать
Просмотров: 122
Уроки эстрадного вокала в Санкт-Петербурге
-------------------------------------------------------------------------------
                             CHAPTER 13 - Gyroscope
-------------------------------------------------------------------------------
Tabbed by:orgasmickey

Tuning: DADGBe

CHORUS

Guitars 1 + 2

e|----------------------------------------------|
B|----------------------------------------------|
G|---9999-9999-9999-9999---7777-7777-7777-7777--|
D|---7777-7777-7777-7777---7777-7777-7777-7777--|
A|---7777-7777-7777-7777---5555-5555-5555-5555--|
D|---7777-7777-7777-7777------------------------|

  "I'm just a broken toy..always been this way"


e|-----------------------------------------------|
B|-----------------------------------------------|
G|---9999-9999-9999-9999---4444-4444-4444-4444---|
D|---7777-7777-7777-7777---2222-2222-2222-2222---|
A|---7777-7777-7777-7777---2222-2222-2222-2222---|
D|---7777-7777-7777-7777---2222-2222-2222-2222---|

    "I'm the last chapter in your boring book"


VERSE 1

Guitar 1

e|---------------------------------------------------------------------------|
B|---------------------------------------------------------------------------|
G|---6~~~-----------------------------9~~~-----------------------------------|
D|---4~~~-----------------------------7~~~-----------------------------------|
A|---4~~~-----------------------------7~~~-----------------------------------|
D|---4~~~-----------------------------7~~~-----------------------------------|

   "Are you for real angel? Are quite definate that you're on the level?"

Guitar 2

e|---------------------------------------------------------------------------|
B|---------------------------------------------------------------------------|
G|---6----------7------6~~~--------44/6-----------7------6~~~----------------|
D|------7--777-----7----------------------7--777-----7-----------------------|
A|---------------------------------------------------------------------------|
D|---------------------------------------------------------------------------|

   "Is this for real sweetness? If it is tell me that I'm on your level."

PRE-CHORUS

e|--------------------------|
B|--------------------------|
G|---7777-7777-6666-6666----|
D|---7777-7777-7777-7777----|
A|---5555-5555-4444-4444----|
D|--------------------------|

CHORUS

VERSE 2

Guitar 1

e|-----xxxx----xxxx----xxxx-----xxxx------------------------------------------|
B|--10-xxxx-10-xxxx-10-xxxx-10--xxxx------------------------------------------|
G|---x-xxxx--x-xxxx--x-xxxx--x--xxxx---9~~~-----------------------------------|
D|---7-------7-------7-------7---------7~~~-----------------------------------|
A|-------------------------------------7~~~-----------------------------------|
D|-------------------------------------7~~~-----------------------------------|

    "Will I   -  Forget this?   -    Should I write it down?"

Guitar 2

e|---------------------------------------------------------------------------|
B|---------------------------------------------------------------------------|
G|---6----------7------6~~~--------44/6-----------7------6~~~----------------|
D|------7--777-----7----------------------7--777-----7-----------------------|
A|---------------------------------------------------------------------------|
D|---------------------------------------------------------------------------|

"I've ripped all the pages out of your notebook and now I hope it slows you down"

PRECHORUS (played quietly)

CHORUS x2

BRIDGE 
(Sorry if this part is wrong, just play around with these chords and listen)

e|--------------------------|
B|--------------------------|
G|---7~~~--------6~~~-------|
D|---7~~~--------7~~~-------|
A|---5~~~--------4~~~-------|
D|--------------------------|

  "Forgive me... Forgive me..."

e|-------------------------|
B|-------------------------|
G|-------------------------|
D|---4-44--0--4-44--2------|
A|---4-44--0--4-44--2------| x2
D|---4-44--0--4-44--2------|

e|--------------------------------------|
B|--------------------------------------|
G|---7777777777777777-66666666-99999999-|
D|---7777777777777777-77777777-99999999-|
A|---5555555555555555-44444444-77777777-|
D|--------------------------------------|

e|-------------------------|
B|-------------------------|
G|-------------------------|
D|---4-44--0--4-44--2------|
A|---4-44--0--4-44--2------| x2
D|---4-44--0--4-44--2------|

CHORUSx2


| /  slide up
| ~  ring out

===============================================================================
Добавлено: 27.03.2012
Другие материалы по этой песне:
  • Аккорды и текст

Страница создана 27.03.2012
http://primanota.ru/gyroscope/chapter-13-chords.htm
Привет, Гость.
Предлагаем пройти революционный курс по гитаре.
Подарок от PrimaNota.Ru, забирай!