PrimaNota.ru - самый крупный в мире бесплатный архив песенных текстов, аккордов, табулатур и нот


Gypsy Jazz Caravan - This Aint No Hot Club - таба, видео

Регистрация Запомнить меня
Войти через:  Facebook Google Twitter Vk Yandex Mail.ru

Gypsy Jazz Caravan - This Aint No Hot Club - таба, видео

Печатать
Просмотров: 130
Уроки эстрадного вокала в Санкт-Петербурге
-------------------------------------------------------------------------------
                             This Ain't No Hot Club - Gypsy Jazz Caravan
-------------------------------------------------------------------------------
Tabbed by: Clydelee
E-mail: mqsand@gmail.com

Tuning: Standard
Key: G-minor
Tempo: quarter notes at 140-150?

This is all by ear, guitar only, no solo and where the melody is played by violin or cello/bass i have 
the guitar rhythm tabbed out. Nothing like a cup of gypsy jazz in the morning.

[A]
   D7                      Gmin                    D7                      Gmin
   1  &  2  &  3  &  4  &  1  &  2  &  3  &  4  &  1  &  2  &  3  &  4  &  1  &  2  &  3  &  4  &   
e|------------------------------------------------------------------------------------------------|
B|------------------------------------------------------------------------------------------------|
G|----------------------5--3--------------------3--2--------------------2-----------2--3----------|
D|----------4--7--------------------5-----------------------4--------------5----------------------|
A|-5-----------------------------------5-----------------------5----------------------------------|
E|------------------------------------------------------------------------------------------------|

   D7                      Gmin                    Amin7b5     D7          Gmin                      
   1  &  2  &  3  &  4  &  1  &  2  &  3  &  4  &  1  &  2  &  3  &  4  &  1  &  2  &  3  &  4  &   
e|------------------------------------------------------------------------------------------------|
B|------------------------------------------------------------------------------------------------|
G|----------------------5--3--------------------3--2-----------5-----3----------------------------| x2
D|----------4--7--------------------5--------------------4-----------------5----------------------|
A|-5-----------------------------------5----------------------------------------------------------|
E|------------------------------------------------------------------------------------------------|

[B]
   Bbmaj7      A7          D7          Gmin        Bbmaj       A7          D7
   1  &  2  &  3  &  4  &  1  &  2  &  3  &  4  &  1  &  2  &  3  &  4  &  1  &  2  &  3  &  4  &  
e|------------------------------------------------------------------------------------------------|
B|------------------------------------------------------------------------------------------------|
G|-------------------------------5-----------3----------------------------------------------------| 
D|-------3-----------5--------4-----4-----2-----2--------5-----------5-----0--------------------2-| 
A|----5-----5-----4-----4--5--------------------------5-----5-----5-----5--------------1--3--5----|
E|-6-----------5-----------------------3-----------6-----------5--------------2--3--5-------------|

   Bbmaj7      A7          D7          Gmin        Bbmaj       triplets?   A7
   1  &  2  &  3  &  4  &  1  &  2  &  3  &  4  &  1  &  2  &  3  &  4  &  1  &  2  &  3  &  4  &  
e|------------------------------------------------------------------------------------------------|
B|------------------------------------------------------------------------------------------------|
G|-------------------------9--------7-------------------------------------------------------------|
D|-------------------6--7--------------7-----6--7--10----------8-----------7----------------------|
A|-------4--5--6--7-------------------------------------------------8---10------------------------|
E|-5--6-------------------------------------------------------------------------------------------|

[A]-With cello/bass on melody
   D7                      Gmin                    D7                      Gmin
   1  &  2  &  3  &  4  &  1  &  2  &  3  &  4  &  1  &  2  &  3  &  4  &  1  &  2  &  3  &  4  & 
e|------------------------------------------------------------------------------------------------|
B|-------------------------------------3-----------------------------------------------3----------|
G|-------------5-----------------3-----------3-----------------5-----------------3-----------3----|
D|-------4-----------4------5----------------------------4-----------4-----5----------------------|
A|-5-----------------------------------------------5----------------------------------------------|
E|------------------------------------------------------------------------------------------------|

   D7                      Gmin                    Amin7b5     D7          Gmin start solos
   1  &  2  &  3  &  4  &  1  &  2  &  3  &  4  &  1  &  2  &  3  &  4  &  1  &  2  &  3  &  4  & 
e|------------------------------------------------------------------------------------------------|
B|-------------------------------------3-----------4-----4-----------------3----------------------|
G|-------------5-----------------3-----------3-----5-----5-----5-----5-----3----------------------|
D|-------4-----------4-----5-----------------------5-----5-----4-----4-----2----------------------|
A|-5-----------------------------------------------x-----x-----5-----5-----x----------------------|
E|-------------------------------------------------5-----5-----------------3----------------------|

Thats the form pretty much, the only thing that might be off with this is some of the harmonies for the middle
of part [B] i think they are right, but the melody really goes against a few of those chords so who knows. Have
fun with this one!!
************************************

| /   slide up
| \   slide down
| h   hammer-on
| p   pull-off
| ~   vibrato
| +   harmonic
| x   Mute note
| b   Bend
| pb  Pre-bend
| br  Bend release
| pbr Pre-bend release
| brb Bend release bend

************************************
Добавлено: 29.11.2015
Другие материалы по этой песне:
  • Аккорды и текст

Страница создана 29.11.2015
http://primanota.ru/gypsy-jazz-caravan/this-aint-no-hot-club-chords.htm
Привет, Гость.
Предлагаем пройти революционный курс по гитаре.
Подарок от PrimaNota.Ru, забирай!