PrimaNota.ru - самый крупный в мире бесплатный архив песенных текстов, аккордов, табулатур и нот


Gypsy And The Cat - Bloom - таба, видео

Регистрация Запомнить меня
Войти через:  Facebook Google Twitter Vk Yandex Mail.ru

Gypsy And The Cat - Bloom - таба, видео

Печатать
Просмотров: 168
Artist: Gypsy & The Cat.
Song: Bloom.
Album: The Late Blue. 
Year: 2012.

Hi there.
Again, I saw this requested here on UG, so I made this tab for it!

Comments, corrections, questions and requests can be sent to:
Kenni-B@hotmail.com

Enjoy this, good people!


Chords:

   A     D    F#m
|--0--|--2--|--2--|
|--2--|--3--|--2--|
|--2--|--2--|--4--|
|--2--|--0--|--4--|
|--0--|--x--|--4--|
|--x--|--x--|--2--|

Intro:

A - D x4. - Played along with the guitar riff.

Guitar Riff:
|----------------------------------------------------------------|
|----------------------------------------------------------------|
|--4-6--666-4-6-6-4-6-4---9-6-6666-6-6------4-6--666-4-6-6-4-6-4-|
|--------------------------------------777-----------------------|
|----------------------------------------------------------------|
|----------------------------------------------------------------|

|---------------------|
|---------------------|
|--2-2-2-4---2-2-2222-|
|----------4----------| x2.
|---------------------|
|---------------------|

Bass:
        A            D
|-----------------------------|
|-----------------------------| Same rhythm all the way through!
|----------------5-5-5-5--555-|
|--5-5-5-5--555---------------|


Verse 1:
A                    D        A       D
Should I keep myself ravenous to you?
A                 D
And I feel myself surviving you
A                 D
I lose, I lose my head

Chorus:
A
All around me
D
I keep moving, everybody changes
A                       D
If I'll have to leave tonight
                          A     D   A   D
Will it ever be the same again?

                          A     D   A   D
Will it ever be the same again?

Guitar Riff:
|----------------------------------------------------------------|
|----------------------------------------------------------------|
|--4-6--666-4-6-6-4-6-4---9-6-6666-6-6------4-6--666-4-6-6-4-6-4-|
|--------------------------------------777-----------------------|
|----------------------------------------------------------------|
|----------------------------------------------------------------|

|---------------------|
|---------------------|
|--2-2-2-4---2-2-2222-|
|----------4----------| x2.
|---------------------|
|---------------------|

Verse 2:
A                        D             A
There are pictures in my kind of view again
  D
Today
A                        D
If I'll lose them I will die with you
  A
Believe
             D
That I could wait


Chorus:
A
All around me
D
I keep moving, everybody changes
A                       D
If I'll have to leave tonight
                          A     D   A   D
Will it ever be the same again?

                          A     D   A   D
Will it ever be the same again?

|----------------------------------------------------------------|
|----------------------------------------------------------------|
|--4-6--666-4-6-6-4-6-4---9-6-6666-6-6------4-6--666-4-6-6-4-6-4-|
|--------------------------------------777-----------------------|
|----------------------------------------------------------------|
|----------------------------------------------------------------|

|---------------------|
|---------------------|
|--2-2-2-4---2-2-2222-|
|----------4----------| x2
|---------------------|
|---------------------|


Instrumental Bridge:

A - D - A - F#m.

Guitar Riff:
|----------------------------------------------------------------|
|----------------------------------------------------------------|
|--4-6--666-4-6-6-4-6-4---9-6-6666-6-6------4-6--666-4-6-6-4-6-4-|
|--------------------------------------777-----------------------|
|----------------------------------------------------------------|
|----------------------------------------------------------------|

|---------------------|
|---------------------|
|--2-2-2-4---2-2-2222-|
|----------4----------| x2.
|---------------------|
|---------------------|

A
All around me
D
I keep moving, everybody changes
A                       D
If I'll have to leave tonight
                          A     D   A   D
Will it ever be the same again?

                          A     D   A   D
Will it ever be the same again?


|----------------------------------------------------------------|
|----------------------------------------------------------------|
|--4-6--666-4-6-6-4-6-4---9-6-6666-6-6------4-6--666-4-6-6-4-6-4-|
|--------------------------------------777-----------------------|
|----------------------------------------------------------------|
|----------------------------------------------------------------|

|---------------------|
|---------------------|
|--2-2-2-4---2-2-2222-|
|----------4----------| Repeat 'till fade-out!
|---------------------| Along with the Chorus!
|---------------------|

End on A.

Lyrics found at:
http://www.sing365.com/music/lyric.nsf/Bloom-lyrics-Gypsy-and-The-Cat/BF4FF5F999662A9648257AA6004A4C0A

Добавлено: 20.03.2015
Другие материалы по этой песне:
  • Аккорды и текст

Страница создана 20.03.2015
http://primanota.ru/gypsy-and-the-cat/bloom-chords.htm
Привет, Гость.
Предлагаем пройти революционный курс по гитаре.
Подарок от PrimaNota.Ru, забирай!