PrimaNota.ru - самый крупный в мире бесплатный архив песенных текстов, аккордов, табулатур и нот


Gym Class Heroes - Extra Extra - текст песни, бас-таба, видео

Регистрация Запомнить меня
Войти через:  Facebook Google Twitter Vk Yandex Mail.ru

Gym Class Heroes - Extra Extra - текст песни, бас-таба, видео

Печатать
Просмотров: 184
Уроки эстрадного вокала в Санкт-Петербурге
Gym Class Heroes
For The Kids
Extra Extra

The Bridge might be a little bit off and the Outro is full of variations but I'm 
pretty sure this is right.

Verse
|----11-----14--12\11--12\11-----------------------------------|
|----12-----14--14\12--14\12-----------------------------------|
|-12-----12------------------9-7-5-x---5-7-9-7-12--9-12-9------|
|------------------------------------7--------------------12-9-|

|----11-----14--14-12-12--12\11-----------------------------------|
|----12-----14--16-14-11--14\12-----------------------------------|
|-12-----12---------------------9-7-5-x---5-7-9-7-12--9-12-9------|
|---------------------------------------7--------------------12-9-|

Chorus
|-------------------------------------------------|
|-------------------------------------------------|
|-9-9-9--9-9--7-7-7--7-7--5-5-5--5-5--------------|
|------------------------------------7-7--7--7--7-|

Post Chorus
|-------|-----|
|-------|-----|
|-9-7-5-|-7-9-|
|-------|-----|

Bridge
|-------------------------------|
|-2-----------------------------|
|---3-2-3-2-0--0-2-3-5--0-2-3-5-|
|-------------------------------|

Outro
|---------------------------------------|
|---------------------------------------|
|--/7\-0-/12\0---/7-5-3-5-3-2-3-2-0---0-|
|-----------------------------------3---|

If you have any questions email me at itscarpmang12@aim.com
Добавлено: 25.02.2012
Другие материалы по этой песне:
  • Аккорды и текст

Страница создана 25.02.2012
http://primanota.ru/gym-class-heroes/extra-extra-chords.htm
Привет, Гость.
Предлагаем пройти революционный курс по гитаре.
Подарок от PrimaNota.Ru, забирай!