PrimaNota.ru - самый крупный в мире бесплатный архив песенных текстов, аккордов, табулатур и нот


Gyllene Tider - Demon Emptiness - текст песни, таба, видео

Регистрация Запомнить меня
Войти через:  Facebook Google Twitter Vk Yandex Mail.ru

Gyllene Tider - Demon Emptiness - текст песни, таба, видео

Печатать
Просмотров: 112
Tabbed for Standard Tuning
Tabbed by Jeppe
Songwriter: Per Gessle & Mats MP Persson

Intro (Keyboard)
e-----------------------------------------------------------------|
B-----------------------------------------------------------------|
G--14-12-11--11-----14--11----------14-12-11--11-----14--11-------|
D----------------14---------12--------------------14--------------|
A-----------------------------------------------------------------|
E-----------------------------------------------------------------|

e-----------------------------------------------------------------|
B-----------------------------------------------------------------|
G--9-11-12--12--11-11--11--9--------9-11-12--12--11-11--9---------|
D-----------------------------------------------------------------|
A-----------------------------------------------------------------|
E-----------------------------------------------------------------|

x 2

Verse 1
D            A
 Think about you
D            A
 Think about me
        G         D          A
And the way that things are going
        Em      Bm      A
And the way it used to be

D              A
 It used to be me
D                   A
 Yes, it used to be me
      G         D    A
But I don't know anymore
      G                 A
Who's got your precious key

Chorus
G    A  D     D/C#    Bm
Ohhh oh Sweet tenderness
       G             D
In the middle of the night
       A
When i need it
G    A  D     D/C#   Bm
Ohhh oh Demon Emptiness
     Em                    A
When I want to give you my love

Verse 2
D         A
 I know a heart
D                 A
 That's trying to keep
    G       D        A
And hold on to those moments
        Em        Bm  A
When it feels like a fantasy

D                   A
 When it used to be me
D                  A
 And it used to be you
     G       D                A
But then, I guess, there were winter
Em   Bm    A
out of the blue

Chorus
G    A  D     D/C#    Bm
Ohhh oh Sweet tenderness
       G             D
In the middle of the night
       A
When i need it
G    A  D     D/C#   Bm
Ohhh oh Demon Emptiness
     Em                    F#m
When I want to give you my love

Bridge

Dm  |Am  |Dm  |Am

    Dm          Am
One part of me
     Dm          Am
Just can't go on
    C         G
The other one
      A
Is in love

Interlude (Keyboard)
e-----------------------------------------------------------------|
B-----------------------------------------------------------------|
G--14-12-11--11-----14--11----------14-12-11--11-----14--11-------|
D----------------14---------12--------------------14--------------|
A-----------------------------------------------------------------|
E-----------------------------------------------------------------|

e-----------------------------------------------------------------|
B-----------------------------------------------------------------|
G--9-11-12--12--11-11--11--9--------9-11-12--12--11-11--9---------|
D-----------------------------------------------------------------|
A-----------------------------------------------------------------|
E-----------------------------------------------------------------|

x 2

2nd time some chords back up the melody

D  A |Bm
D  A |Bm
G  D |A
Em Bm |A


Chorus
G    A  D     D/C#    Bm
Ohhh oh Sweet tenderness
       G             D
In the middle of the night
       A
When i need it
G    A  D     D/C#   Bm
Ohhh oh Demon Emptiness
     Em                    A
When I want to give you my love

Repeat chorus 'till the end
Добавлено: 26.07.2012
Другие материалы по этой песне:
  • Аккорды и текст

Страница создана 08.04.2012
http://primanota.ru/gyllene-tider/demon-emptiness-chords.htm
Привет, Гость.
Предлагаем пройти революционный курс по гитаре.
Подарок от PrimaNota.Ru, забирай!