PrimaNota.ru - самый крупный в мире бесплатный архив песенных текстов, аккордов, табулатур и нот


Gyllene Tider - Break Another Heart - текст песни, таба, видео

Регистрация Запомнить меня
Войти через:  Facebook Google Twitter Vk Yandex Mail.ru

Gyllene Tider - Break Another Heart - текст песни, таба, видео

Печатать
Просмотров: 234
Tabbed for Standard Tuning
Tabbed by Jeppe
Songwriter: Per Gessle
BPM: 125

Intro

  E                                    C#m
    Break another heart, find another fool.
                                          A
    Take another heart, run and treat it cruel.
                                 B
    Go break another heart into pieces baby, baby.

Intro 2

E  |B  |C#m  |A  x 2

Piano melody
e---------------------------------------------------------------------|
B---------------------------------------------------------------------|
G--13-13-11-11-9-9-6-6-4-4----13-13-11-11-9-9-6-4-6-2-----------------|
D---------------------------------------------------------------------|
A---------------------------------------------------------------------|
E---------------------------------------------------------------------|

e---------------------------------------------------------------------|
B---------------------------------------------------------------------|
G--13-13-11-11-9-9-6-6-4-4----13-13-11-11-9-9-6-4-6-2-----------------|
D---------------------------------------------------------7-6-4-2-----|
A-------------------------------------------------------7-------------|
E---------------------------------------------------------------------|

Verse 1:
  E                           B
    You want the beating of another man's heart.
  C#m                       A
    You want that face, to tear us apart, oh baby.
  E                                 B
    You want that love to take you high in the sky,
  C#m                      A
    I watch you fly, with tears in my eyes.
         B
    Now this is the end, this is really goodbye.


Chorus:

During Chorus Lead Guitar Plays
Riff 1
e--------------------------------------------------------------|
B--------------------------------------------------------------|
G--9-----9-8-6------6-4--2----4-6-8-9-11-13--------------------|
D--------------------------------------------------------------|  x 2
A--7-----7-6-4------4-2--0----2-4-6-7-9--11--------------------|
E--------------------------------------------------------------|

  E                                    C#m
    Break another heart, find another fool.
                                          A
    Take another heart, run and treat it cruel.
                                 B
    Go break another heart into pieces baby, baby.
  E                                                C#m
    Well I don't want to know and I don't want to stay.
                                           A
    Go cry to some-one else, I will walk away.
                                 B                     E
    Go break another heart into pieces baby, baby not mine.

Interlude


E  |B  |C#m  |A

Piano melody

e---------------------------------------------------------------------|
B---------------------------------------------------------------------|
G--13-13-11-11-9-9-6-6-4-4----13-13-11-11-9-9-6-4-6-2-----------------|
D---------------------------------------------------------7-6-4-2-----|
A-------------------------------------------------------7-------------|
E---------------------------------------------------------------------|


Verse 2:
  E                         B
    I hold a woman I don't know anymore,
  C#m                               A
    I kiss the lips I've kissed a million times before.
  E                          B
    I love that body but it don't feel the same,
  C#m                       A
    you play the part in another man's game.
        B
    Oh baby baby, this love isn't grey-ayay.


Chorus:
  E                                    C#m
    Break another heart, find another fool.
                                          A
    Take another heart, run and treat it cruel.
                                 B
    Go break another heart into pieces baby, baby.
  E                                                C#m
    Well I don't want to know and I don't want to stay.
                                           A
    Go cry to some-one else, I will walk away.
                                 B                     E
    Go break another heart into pieces baby, baby not mine.


Bridge:
  Bm               E                A               F#m
    Thinking back all of the nights, I held you so tight.
  Bm                              E
    Two 'young at heart's in the heat of the night,
       A              C#
    together side by side.

    Baby baby.


Chorus:
  F#                                    Ebm
    Break another heart, find another fool.
                                          B
    Take another heart, run and treat it cruel.
                                 C#
    Go break another heart into pieces baby, baby.
  F#                                                Ebm
    Well I don't want to know and I don't want to stay.
                                           B
    Go cry to some-one else, I will walk away.
                                 C#                    F#
    Go break another heart into pieces baby, baby not mine.
Добавлено: 17.05.2012
Другие материалы по этой песне:
  • Аккорды и текст

Страница создана 12.04.2012
http://primanota.ru/gyllene-tider/break-another-heart-chords.htm
Привет, Гость.
Предлагаем пройти революционный курс по гитаре.
Подарок от PrimaNota.Ru, забирай!