PrimaNota.ru - самый крупный в мире бесплатный архив песенных текстов, аккордов, табулатур и нот


Gwen Stacy - Path To Certainty - таба, видео

Регистрация Запомнить меня
Войти через:  Facebook Google Twitter Vk Yandex Mail.ru

Gwen Stacy - Path To Certainty - таба, видео

Печатать
Просмотров: 161
Уроки эстрадного вокала в Санкт-Петербурге
-------------------------------------------------------------------------------
                             The Path to Certainty - Gwen Stacy
-------------------------------------------------------------------------------
Tabbed by: Demonhunter04
Email: Demonhunter04@live.com

Tuning: Drop C

intro (0:04-0:14)
D|------------------------|--------------------------------------------------|
A|------------------------|--------------------------------------------------|
F|--5---8---5-------------|--------------------------------------------------|
C|--x---x---x-------------|X4------------------------------------------------|
G|--3---6---3-------------|--------------------------------------------------|
C|------------0-3-4-0-3-0-|--------------------------------------------------|

(0:15-0:25) 
down, down again...
D|-------------------------------|-------------------------------------------|
A|-------------------------------|-------------------------------------------|
F|----5----------55--------------|-----5---------5/66---99-------------------|
C|----x--0-3-4---xx--0-3-4-0-3-0-|X3---x--0-3-4--x-xx---xx-------------------|
G|----3--0-3-4---33--0-3-4-0-3-0-|-----3--0-3-4--3/44---77-------------------|
C|-------0-3-4-------0-3-4-0-3-0-|--------0-3-4------------------------------|
 
(0:26-0:29)
D|---------------------------------------------------------------------------|
A|---------------------------------------------------------------------------|
F|---------------------------------------------------------------------------|
C|---3-4-(0)-4----3-4-(0)-4--000-000--6-6-6----------------------------------|
G|---3-4-(0)-3----3-4-(0)-3--000-000--x-x-x----------------------------------|
C|---3-4-(0)-3----3-4-(0)-3--000-000--4-4-4----------------------------------|
                             ... ...
(0:30-0:45)                             (0:43) when will I see...
D|-----------------------------------|---------------------------------------|
A|-----------------------------------|---------------------------------------|
F|-----------------------------------|----5555555555555555-------------------|
C|-------------0-000-----------------|X4--xxxxxxxxxxxxxxxx-------------------|
G|-1-----1-----0-000---1h3h4p3--3/4--|----3333333333333333-------------------|
C|--3-0---3-0--0-000-----------------|---------------------------------------| 
               . ...               
chorus(0:45-1:07) 
swallow your pride...          (1:02)
D|-----------|--------------|------------------------------------------------|
A|-----------|--------------|------------------------------------------------|
F|----5----9-|--------------|------------------------------------------------|
C|--3-x--7-x-|X2---3--7--10-|---3--6--000-000-000-0-000--000-000-000-0-000---|
G|--3-3--7-7-|-----3--7--10-|---3--6--000-000-000-0-000--000-000-000-0-000---|
C|--3----7---|-----3--7--10-|---3--6--000-000-000-0-000--000-000-000-0-000---|
                                      ... ... ... . ...  ... ... ... . ... 
                                          (1:22) crawl in humilty...
D|---------------------------------------|-------------|---------------------|
A|---------------------------------------|-------------|---------------------|
F|---------------------------------------|-------------|---------------6666--|
C|--000-000-000-0-000--000-000-000-0---*7|-000-000-000-|X3-000-000-0---xxxx--|
G|--000-000-000-0-000--000-000-000-0-----|-000-000-000-|---000-000-0---4444--|
C|--000-000-000-0-000--000-000-000-0-----|-000-000-000-|---000-000-0---------|
    ... ... ... . ...  ... ... ... .       ... ... ...     ... ... 
  (1:37)                                             (1:54)when will I see...
D|-----------------------------------|---------------------------------------|
A|-----------------------------------|---------------------------------------|
F|-----------------------------------|----5555555555555---99999999999--------|
C|-------------0-000-----------------|X4--xxxxxxxxxxxxx---xxxxxxxxxxx--------|
G|-1-----1-----0-000---1h3h4p3--3/4--|----3333333333333---77777777777--------|
C|--3-0---3-0--0-000-----------------|---------------------------------------| 
               . ...
chorus (1:57)
swallow your pride...          (2:12)
D|-----------|--------------|------------------------------------------------|
A|-----------|--------------|------5-----------------------------------------|
F|----5----9-|--------------|------5--5--------------------------------------|
C|--3-x--7-x-|X2---3--7--10-|---3--3--x--------------------------------------|
G|--3-3--7-7-|-----3--7--10-|---3--3--3--------------------------------------|
C|--3----7---|-----3--7--10-|---3--3-----------------------------------------|
                                      
chorus (2:18)
swallow your pride...          (2:33) My son you're not alone...
D|-----------|--------------|------------------------------------------------|
A|-----------|--------------|------------------------------------------------|
F|----5----9-|--------------|------------------------------------------------|
C|--3-x--7-x-|X2---3--7--10-|---3--6-----------------------------------------|
G|--3-3--7-7-|-----3--7--10-|---3--6-----------------------------------------|
C|--3----7---|-----3--7--10-|---3--6-----------------------------------------|
outro (2:39) 
All is not lost yet...                                       (2:53)
D|----------------------|--------------xxxxxxxx|------------|----------------|
A|----------------------|--------------xxxxxxxx|------------|----------------|
F|-------9-9-9----------|-------9-9-9--xxxxxxxx|-------9-9-9|-------9-9-9----|
C|--0-0--x-x-x--00000000|--0-0--x-x-x--xxxxxxxx|--0-0--x-x-x|--0-0--x-x-x----|
G|--0-0--7-7-7--00000000|--0-0--7-7-7--xxxxxxxx|--0-0--7-7-7|--0-0--7-7-7----|
C|--0-0---------00000000|--0-0---------xxxxxxxx|--0-0-------|--0-0-----------|
                ........
D|----------|----------------------------------------------------------------|
A|----------|----------------------------------------------------------------|
F|----------|----------------------------------------------------------------|
C|-11111111-|END-------------------------------------------------------------|
G|-11111111-|----------------------------------------------------------------|
C|-11111111-|----------------------------------------------------------------|
   ........

This was done by ear so there may be error, but it's like 99% correct at least. 
Done for intheendburnitall on youtube.com.
Here's my cover of this song: http://www.youtube.com/watch?v=UPMYdr3NyVU

************************************

| /   slide up
| \   slide down
| h   hammer-on
| p   pull-off
| ~   vibrato
| +   harmonic
| x   Mute note
| b   Bend
| pb  Pre-bend
| br  Bend release
| pbr Pre-bend release
| brb Bend release bend

************************************
Добавлено: 19.03.2012
Другие материалы по этой песне:
  • Аккорды и текст

Страница создана 19.03.2012
http://primanota.ru/gwen-stacy/the-path-to-certainty-chords.htm
Привет, Гость.
Предлагаем пройти революционный курс по гитаре.
Подарок от PrimaNota.Ru, забирай!