PrimaNota.ru - самый крупный в мире бесплатный архив песенных текстов, аккордов, табулатур и нот


Gwen Stacy - The First Words - таба, видео

Регистрация Запомнить меня
Войти через:  Facebook Google Twitter Vk Yandex Mail.ru

Gwen Stacy - The First Words - таба, видео

Печатать
Просмотров: 94
[The First Words]
[A Dialogue]
[Gwen Stacy]

Tunning: Drop C (CGCFAD/Drop D 1 Step Down)
joshuaoliveira@hotmail.com

does anyone listen to gwen stacy? :S
theres like no tabs lol n there too good!
taking requests aha this albums sick

[Riff 1, Guitar 1 & 2] - [00:05] - [00:17]
- -----------------------------------------------------------------|
- -----------------------------------------------------------------|
- -----------------------------------------------------------------|
- -7-7-7-7-5-5-2-2-2-2-2-2-2-2-2-2-7-7-7-7-2-2-3-3-5-5-5-5-5-5-5-5-|
- -5-5-5-5-3-3-0-0-0-0-0-0-0-0-0-0-5-5-5-5-0-0-3-3-5-5-5-5-5-5-5-5-|
- ---------------------------------------------3-3-5-5-5-5-5-5-5-5-|
-
- -----------------------------------------------------------------|
- -----------------------------------------------------------------|
- -101010109-9-5-5-5-5-5-5-5-5-5-5-5-5-5-5-7-7-5-5-4-4-4-4-4-4-4-4-|
- -X-x-x-x-x-x-x-x-x-x-x-x-x-x-x-x-x-x-x-x-x-x-x-x-x-x-x-x-x-x-x-x-|
- -8-8-8-8-7-7-3-3-3-3-3-3-3-3-3-3-3-3-3-3-5-5-3-3-2-2-2-2-2-2-2-2-|
- -----------------------------------------------------------------|


- -----------------------------------------------------------------|
- -----------------------------------------------------------------|
- -----------------------------------------------------------------|
- -7-7-7-7-5-5-2-2-2-2-2-2-2-2-2-2-7-7-7-7-2-2-3-3-5---------------|
- -5-5-5-5-3-3-0-0-0-0-0-0-0-0-0-0-5-5-5-5-0-0-3-3-5---------------|
- ---------------------------------------------3-3-5---------------|
-
- -----------------------------------------------------------------|
- -----------------------------------------------------------------|
- -101010109-9-5-5-5-5-5-5-5-5-5-5-5-5-5-5-7-7-5-5-4---------------|
- -X-x-x-x-x-x-x-x-x-x-x-x-x-x-x-x-x-x-x-x-x-x-x-x-x---------------|
- -8-8-8-8-7-7-3-3-3-3-3-3-3-3-3-3-3-3-3-3-5-5-3-3-2---------------|
- -----------------------------------------------------------------|

----------------------------------------------------------------------------

[Riff 2a] - [00:17] - [00:30-------------------------------------------| - [2x]
- ---------------------------------------------------------------------|
- ---------------------------------------------------------------------|
- ---------------------------------------------------------------------|
- ---------------------------------------------------------------------|
- -000-00000-0-------000-0-------7-7---77777-7-7-----1010-1010-10-10---|
- -000-00000-0-------000-0-------7-7---77777-7-7-----1010-1010-10-10---|
PM .................................................................

[Riff 2b] - [00:17] - [00:30----------------------------------------| - [2x]
- ------------------------------------------------------------------|
- ------------------------------------------------------------------|
- ---7-----7-7---7---7---7---7---7---5-----5-5---5---5-----5-5---5--|
- -7---7-7-----7---7---7---7---7---7---7-7-----7---5---5-5-----5----|
- ------------------------------------------------------------------|
- ------------------------------------------------------------------|

----------------------------------------------------------------------------

[Riff 3] - [00:30] - [00:39-------------------------| - [2x]
- --------------------------------------------------|
- --------------------------------------------------|
- --------------------------------------------------|
- --------------------------------------------------|
- -0h1-----0h1-6p3-----6p3-----3-0-0---3h6p5--------|
- -----0000--------0000----0h7---0-0-5-------0h1----|
PM     ....        ....          ...

----------------------------------------------------------------------------

[Riff 4, Guitar 1 & 2] - [00:39] - [00:51]
- -------------------------------------------------------------0---|
- -------------------------------------------------------------0---|
- -------------------------------------------------------------0---|
- -----------------------------------------------------------------|
- -333-33333-3-------333-3-------3-3---33333-3-3-----33--33--3-----|
- -333-33333-3-------333-3-------3-3---33333-3-3-----33--33--3-----|
PM ...........................................................
-
- -----------------------------------------------------------------|
- -------------------------------------10--10--10------------------|
- -1212121212121212121010101010109-9-9---9---9---------------------|
- -101010101010101010101010101010101010----------10~---------------|
- -----------------------------------------------10~---------------|
- -----------------------------------------------------------------|


- -----------------------------------------------------------------|
- -----------------------------------------------------------------|
- -----------------------------------------------------------------|
- -------------------------------------------------------------10\-|
- -333-33333-3-------333-3-------3-3---33333-3-3-----33--33--3-10\-|
- -333-33333-3-------333-3-------3-3---33333-3-3-----33--33--3-10\-|
PM ...........................................................
-
- -----------------------------------------------------------------|
- ---------------------------------10--10--10--1010101010101010----|
- -1212121212121212121010101010109---9---9---9---9-9-9-9-9-9-9-----|
- -10101010101010101010101010101010--------------10101010101010----|
- -----------------------------------------------------------------|
- -----------------------------------------------------------------|

----------------------------------------------------------------------------

[Riff 5, Guitar 1 & 2] - [00:51] - [00:57]
- -----------------------------------------------------------------|
- -----------------------------------------------------------------|
- -----------------------------------------------------------------|
- -3~--------------------------------------------------------------|
- -3~--------------------------------------------------------------|
- -3~--------------------------------------------------------------|
-
- -----------------------------------------------------------------|
- -----------------------------------------------------------------|
- -----------------------------------------------------------------|
- -2~--------------------------------------------------------------|
- -3~--------------------------------------------------------------|
- -3~--------------------------------------------------------------|

----------------------------------------------------------------------------

[Riff 6, Guitar 1 & 2] - [00:57] - [01:03]
- ------------------------------------------------------------------|
- ------------------------------------------------------------------|
- ------------------------------------------------------------------|
- -------------------------------------------------1010101010101010-|
- ---3---3-3---333---333-3-3-----337-7---7-7---777-1010101010101010-|
- ---3---3-3---333---333-3-3-----337-7---7-7---777-1010101010101010-|
PM   .............................................
-
- ------------------------------------------------------------------|
- ------------------------------------------------------------------|
- -9-9-9-9-9-9-9-9-9-9-9-9-9-9-9-9-12121212121212121212121212121212-|
- -x-x-x-x-x-x-x-x-x-x-x-x-x-x-x-x-x-x-x-x-x-x-x-x-x-x-x-x-x-x-x-x--|
- -7-7-7-7-7-7-7-7-7-7-7-7-7-7-7-7-10-10-10-10-10-10-10-10-10-10-10-|
- ------------------------------------------------------------------|

----------------------------------------------------------------------------

[Riff 7, Guitar 1 & 2] - [01:03] - [01:16]
- --------------------------------------------------------------------|
- --------------------------------------------------------------------|
- -7---------------9-----10--------14--------------12----10----5------|
- -x---------------x-----x---------x---------------x-----x-----x------|
- -5(8x)-----------7(3x)-8(5x)-----12(8x)----------10(3x)8(3x)-3(2x)--|
- --------------------------------------------------------------------|
-
- --------------------------------------------------------------------|
- --------------------------------------------------------------------|
- -10--------------12----14--------17--------------15----13----12-----|
- -x---------------x-----x---------x---------------x-----x-----x------|
- -8(8x)-----------10(3x)12(5x)----15(8x)----------13(3x)11(3x)10(2x)-|
- --------------------------------------------------------------------|


- --------------------------------------------------------------------|
- --------------------------------------------------------------------|
- -7---------------9-----10--------14--------------12------10---------|
- -x---------------x-----x---------x---------------x-------x----------|
- -5(8x)-----------7(3x)-8(5x)-----12(8x)----------10(4x)--8(4x)------|
- --------------------------------------------------------------------|
-
- --------------------------------------------------------------------|
- --------------------------------------------------------------------|
- -10--------------12----14--------17--------------18-----------------|
- -x---------------x-----x---------x---------------x------------------|
- -8(8x)-----------10(3x)12(5x)----15(8x)----------15(8x)-------------|
- --------------------------------------------------------------------|

----------------------------------------------------------------------------

[Riff 8a] - [01:16] - [01:28]
- ---------------------------------------------------|
- ---------------------------------------------------|
- ---------------------------------------------------|
- -8-----5-----7-------------8-----5-----3-----7-----|
- -8-----5-----5(16x)--------8-----5-----3-----7-----|
- -8(8x)-5(8x)---------------8(8x)-5(8x)-3(8x)-7(8x)-|

[Riff 8b] - [01:16] - [01:28]
- ------------------------------------------------|
- ------------------------------------------------|
- -12-------10-------12-------10-------12----9-10-|
- ----10-10----10-10----10-10----10-10----10------|
- ------------------------------------------------|
- ------------------------------------------------|

Played 3x then..

- -------------------------12-------12-------12----|
- ----------------------------10-10----10-10----10-|
- -10-------10-------10----------------------------|
- ----10-10----10-10----10-------------------------|
- -------------------------------------------------|
- -------------------------------------------------|

----------------------------------------------------------------------------

[Riff 3] - [01:28] - [01:37] - [2x]

----------------------------------------------------------------------------

[Riff 9] - [01:37] - [01:40]
- ---------------------------------|
- ---------------------------------|
- ---------------------------------|
- -6---6-6-6---6-6-6-6---------7\--|
- -5---5-5-5---5-5-5-5---------5\--|
- ---00------00--------00000h6-----|
PM   ..      ..        ....

----------------------------------------------------------------------------

[Riff 10] - [01:40] - [01:52]
- -----------------x-x-0~------------------------------------------|
- -----------------x-x-0~------------------------------------------|
- -----------------x-x-0~------2~--------2~----------------3~------|
- -----------------x-x---------1~--------1~----------------2~------|
- -----------------x-x---------0~--------0~------------11111~------|
- -001---001-------x-x---------------------------------------------|
PM ..    ..                                            ....

- -----------------x-x-0~------------------------------------------|
- -----------------x-x-0~------------------------------------------|
- -----------------x-x-0~------2~--------2~--------------3-----3---|
- -----------------x-x---------1~--------1~--------------2-----2---|
- -----------------x-x---------0~--------0~--------------1-----1---|
- -001---001-------x-x---------------------------------0-----0-----|
PM ..    ..                                            .     .

----------------------------------------------------------------------------

[Riff 11a] - [01:52] - [02:04]
- -----------------|
- -6---5---3-------|
- -7---5---3-------|
- -7---5---3---3-1-|
- -5---3---1---3-3-|
- -------------3-1-|

[Riff 11b] - [01:52] - [02:04-------| - [4x]
- ----------------------------------|
- -----------------------6----------|
- -5-7---5---5-7-----------8-7-7-8--|
- -----5---5-----5-8-5-8------------|
- ----------------------------------|
- ----------------------------------|

----------------------------------------------------------------------------

[Riff 12] - [02:04] - [02:17----------------------------------------| - [2x]
- ------------------------------------------------------------------|
- ------------------------------------------------------------------|
- ------------------------------------------------------------------|
- ------------------------------------------------------------------|
- -000-00000-0-------000-0-------0-0---00000-0-0-----00--00--0-0----|
- -000-00000-0-------000-0-------0-0---00000-0-0-----00--00--0-0----|
PM .............................................................

[Riff 11b] - [02:04] - [02:17] - [4x]

----------------------------------------------------------------------------

[Riff 12] - [02:17] - [02:29] - [2x]

----------------------------------------------------------------------------

Riff 13, Guitar 1 & 2] - [02:29] - [02:32]
- ---------------------------------|
- ---------------------------------|
- ---------------------------------|
- -7~------------------------------|
- -7~--------------------------7---|
- -7~--------------------------7---|
PM                             .
-
- ---------------------------------|
- ---------------------------------|
- ---------------------------------|
- -9~------------------------------|
- -7~--------------------------7---|
- -7~--------------------------7---|
PM                             .

----------------------------------------------------------------------------

[Riff 14, Guitar 1 & 2] - [02:32] - [02:44--------------------------| - [2x]
- ------------------------------------------------------------------|
- ------------------------------------------------------------------|
- ------------------------------------------------------------------|
- -7-7-7-7-5-5-2-2-2-2-2-2-2-2-2-2-7-7-7-7-2-2-3-3-5-5-5-5-5-5-5-5--|
- -5-5-5-5-3-3-0-0-0-0-0-0-0-0-0-0-5-5-5-5-0-0-3-3-5-5-5-5-5-5-5-5--|
- ---------------------------------------------3-3-5-5-5-5-5-5-5-5--|
-
- -----------------------------------------------------------------|
- -----------------------------------------------------------------|
- -101010109-9-5-5-5-5-5-5-5-5-5-5-5-5-5-5-7-7-5-5-4-4-4-4-4-4-4-4-|
- -X-x-x-x-x-x-x-x-x-x-x-x-x-x-x-x-x-x-x-x-x-x-x-x-x-x-x-x-x-x-x-x-|
- -8-8-8-8-7-7-3-3-3-3-3-3-3-3-3-3-3-3-3-3-5-5-3-3-2-2-2-2-2-2-2-2-|
- -----------------------------------------------------------------|

----------------------------------------------------------------------------

[Riff 15, Guitar 1 & 2] - [02:44] - [03:09---------------------------| - [4x]
- -------------------------------------------------------------------|
- -------------------------------------------------------------------|
- -------------------------------------------------------------------|
- -7-7-7-7-5-5-2-2-2-2-2-2---------7-7-7-7-2-2-3-3-5-5-5-5-----------|
- -5-5-5-5-3-3-0-0-0-0-0-0-000-0-0-5-5-5-5-0-0-3-3-5-5-5-5-00000-00--|
- -------------------------000-0-0-------------3-3-5-5-5-5-00000-00--|
PM                         .......                         ........
-
- ------------------------------------------------------------------|
- ------------------------------------------------------------------|
- -101010109-9-5-5-5-5-5-5---------5-5-5-5-7-7-5-5-4-4-4-4----------|
- -X-x-x-x-x-x-x-x-x-x-x-x---------x-x-x-x-x-x-x-x-x-x-x-x----------|
- -8-8-8-8-7-7-3-3-3-3-3-3-000-0-0-3-3-3-3-5-5-3-3-2-2-2-2-00000-00-|
- -------------------------000-0-0-------------------------00000-00-|
PM                         .......                         ........

[Riff 16] - [02:56] - [03:09-----------------------------------------| - [2x]
- -------------------------------------------------------------------|
- -------------------------------------------------------------------|
- -1414141412129-9-9-9-9-9-9-9-9-9-9-9-9-9-101014141212121212121212--|
- -x-x-x-x-x-x-x-x-x-x-x-x-x-x-x-x-x-x-x-x-x-x-x-x-x-x-x-x-x-x-x-x---|
- -1212121210107-7-7-7-7-7-7-7-7-7-7-7-7-7-8-8-12121010101010101010--|
- -------------------------------------------------------------------|

----------------------------------------------------------------------------

[Riff 17a] - [03:09] - [03:21]
- -----------------------------------------|
- -----------------------------------------|
- -----------------------------------------|
- -3~------3-3-3-3-3-3-3-3-7-7-7-7-7-7-7-7-|
- -1~------3-3-3-3-3-3-3-3-7-7-7-7-7-7-7-7-|
- ---------3-3-3-3-3-3-3-3-7-7-7-7-7-7-7-7-|

[Riff 17b] - [03:09] - [03:21]
- --------------------------------------------------------------------|
- --------------------------------------------------------------------|
- -7---------------9-----10--------14--------------12----10----5------|
- -x---------------x-----x---------x---------------x-----x-----x------|
- -5(8x)-----------7(3x)-8(5x)-----12(8x)----------10(3x)8(3x)-3(2x)--|
- --------------------------------------------------------------------|

- --------------------------------------------------------------------|
- --------------------------------------------------------------------|
- -7---------------9-----10--------14--------------12------10---------|
- -x---------------x-----x---------x---------------x-------x----------|
- -5(8x)-----------7(3x)-8(5x)-----12(8x)----------10(4x)--8(4x)------|
- --------------------------------------------------------------------|

----------------------------------------------------------------------------

[Riff 8a + Riff 8b] - [03:21] - [03:45] - [2x]

[Riff 18] - [03:33] - [03:45]
- ---------------------------------|
- ---------------------------------|
- ---------------------------------|
- -5-----3-----5-----3-----5---2-3-|
- ---3-3---3-3---3-3---3-3---3-----|
- ---------------------------------|

Played 3x then..

- ----------------------------------|
- ----------------------------------|
- -5-5-5-5-5-5-5-5-1414141414141414-|
- -x-x-x-x-x-x-x-x-x-x-x-x-x-x-x-x--|
- -3-3-3-3-3-3-3-3-1212121212121212-|
- ----------------------------------|

----------------------------------------------------------------------------

[Riff 9] - [03:45] - [03:51] - [2x]

[Riff 19] - [03:51] - [04:05]
- -----------------|
- -----------------|
- -----------------|
- -----------------|
- -----------------|
- -001~------------|
PM ..

----------------------------------------------------------------------------

[Symbols]

PM... Palm Mute notes with (...) under them
h     Hammer On
p     Pull Off
/     Slide Up
\     Slide Down
x     Dead Note
~     Let Ring
(x )  Play x amount of times
Добавлено: 22.05.2012
Другие материалы по этой песне:

Страница создана 01.05.2012
http://primanota.ru/gwen-stacy/the-first-words-chords.htm
Привет, Гость.
Предлагаем пройти революционный курс по гитаре.
Подарок от PrimaNota.Ru, забирай!