PrimaNota.ru - самый крупный в мире бесплатный архив песенных текстов, аккордов, табулатур и нот


Gwen Stacy - The Fear In Your Eyes - таба, бас-таба, видео

Регистрация Запомнить меня
Войти через:  Facebook Google Twitter Vk Yandex Mail.ru

Gwen Stacy - The Fear In Your Eyes - таба, бас-таба, видео

Печатать
Просмотров: 175
-------------------------------------------------------------------------------
			     THE FEAR IN YOUR EYES – Gwen Stacy
-------------------------------------------------------------------------------

Tuning: Drop C

 INTRO
|---------------------------------------------------------------------------|
|---------------------------------------------------------------------------|
|---------------------------------------------------------------------------|
|-44444444444444444444444444444444-000000000~------000000000~---------------|
|-44444444444444444444444444444444-000000000~------000000000~---------------|
|-44444444444444444444444444444444-000000000~------000000000~---------------|

|---------------------------------------------------------------------------|
|---------------------------------------------------------------------------|
|-----------------------------------------66666666--------44444444----------|
|-4444444444444444777777777777-00-00000000--------22222222------------------|
|-4444444444444444777777777777-00-00000000444444442222222222222222----------|
|-4444444444444444777777777777-00-00000000--------22222222------------------|
			        ..
 VERSE			           (0:34)
|-------------------------------|-------------------------------------------|
|-------------------------------|-------------------------------------------|
|-------------------------------|-------------------------------------------|
|-444444444~\\------------------|-44444-6h7h6----------6h7h6----------------|
|-444444444~\\------------------|-44444------7474-4444------747-------------|
|-444444444~\\------------------|-44444-----------4444----------------------|
 						    ....
				      
|-----------------------------------|
|-----------------------------------|
|-----------------------------------|
|-00000----2-2---2222-77779999------|
|-00000----2-2---2222-77779999—(2x)-|
|-00000----2-2---2222-77779999------|
  .....    . .   ....

 CHORUS
|---------------------------------------------------------------------------|
|---------------------------------------------------------------------------|
|-----------------------------------------66666666--------44444444----------|
|-4444444444444444777777777777-00-00000000--------22222222------------------|
|-4444444444444444777777777777-00-00000000444444442222222222222222----------|
|-4444444444444444777777777777-00-00000000--------22222222------------------|
			        ..

|---------------------------------------------------------------------------|
|---------------------------------------------------------------------------|
|-----------------------------------------66666666--------------------------|
|-4444444444444444777777777777-00-00000000--------2222222222222222----------|
|-4444444444444444777777777777-00-00000000444444442222222222222222----------|
|-4444444444444444777777777777-00-00000000--------2222222222222222----------|
 			        ..                         ..  ..

 VERSE
|---------------------------------------------------------------------------|
|---------------------------------------------------------------------------|
|---------------------------------------------------------------------------|
|-44444~-----------22222222--44--4444--22222222-----------------------------|
|-44444~-----------22222222--44--4444--22222222-----(2x)--------------------|
|-44444~-----------22222222--44--4444--22222222-----------------------------|
		    ..  ..        ..    ..  ..  
|---------------------------------------------------------------------------|
|---------------------------------------------------------------------------|
|---------------------------------------------------------------------------|
|-4~------222224~------222224~------222222222-------------------------------|
|-4~------222224~------222224~------222222222-------------------------------|
|-4~------222224~------222224~------222222222-------------------------------|
          ..           ..           ........
 BREAKDOWN
|---------------------------------------------------------------------------|
|---------------------------------------------------------------------------|
|---------------------------------------------------------------------------|
|-2222000--0000-0-0-0--0000--0000----------2222000-0000-0-------------------|
|-2222000--0000-0-0-0--0000--0000----(2X)--2222000-0000-0-------------------|
|-2222000--0000-0-0-0--0000--0000----------2222000-0000-0-------------------|
      ...  .... . . .  ....  ....              ... .... .
|---------------------------------------------------------------------------|
|---------------------------------------------------------------------------|
|-----------------------------------------9b--------------------------------|
|-2222000--0000-0-0-0--0000--00002~-----------------------------------------|
|-2222000--0000-0-0-0--0000--00002~-------7b--------------------------------|
|-2222000--0000-0-0-0--0000--00002~-----------------------------------------|
      ...  .... . . .  ....  ....

 ENDING
|-----------------14-12~----------------------------------------------------|
|-------------14---------------------14-------------------------------------|
|-11-9-11~--11--9--------11-9-11~--11--9------------------------------------|
|---------------------------------------------------------------------------|
|---------------------------------------------------------------------------|
|---------------------------------------------------------------------------|

 Not really sure about the ending but please comment/rate


| /  slide up
| \  slide down
| h  hammer-on
| ~  vibrato
| .  Mute note
===============================================================================

Добавлено: 31.05.2012
Другие материалы по этой песне:

Страница создана 22.05.2012
http://primanota.ru/gwen-stacy/the-fear-in-your-eyes-chords.htm
Привет, Гость.
Предлагаем пройти революционный курс по гитаре.
Подарок от PrimaNota.Ru, забирай!