PrimaNota.ru - самый крупный в мире бесплатный архив песенных текстов, аккордов, табулатур и нот


Gwen Stacy - My Friends Over You Cover - таба, видео

Регистрация Запомнить меня
Войти через:  Facebook Google Twitter Vk Yandex Mail.ru

Gwen Stacy - My Friends Over You Cover - таба, видео

Печатать
Просмотров: 120
Gwen Stacy
My Friends Over You (Cover)
Drop C

Those of you who aren't familiar with this song, its Gwen Stacys hardcore version of NFG 
my friends over you.

Guitar 1

D|-----------------|------------------|-----------------|------------------|
A|-----------------|------------------|-----------------|------------------|
F|-----------------|---2-2-2---2-2----|-----------------|---2-2-2---2-2---2|
C|-2-2-2---2-2---2-|---2-2-2---2-2---2|-2-2-2---2-2---2-|---2-2-2---2-2---2|
G|-2-2-2---2-2---2-|---0-0-0---0-0---0|-2-2-2---2-2---2-|---0-0-0---0-0---0|
C|-2-2-2---2-2---2-|------------------|-2-2-2---2-2---2-|------------------|
           . .                 . .              . .                 . .

Guitar 2

D|-----------------------------------------|
A|----------9------------------9-----------|
F|--11-9-11---11-9-9-11-9-9-11---11-9-9-9--|
C|-----------------------------------------|
G|-----------------------------------------|
C|-----------------------------------------|

Pre Chorus
(Don't let notes ring)                                       (Strum)
D|--------------------------------------------------------|------------|
A|--------------------------------------------------------|------------|
F|--2-2-2-2--------------------2-2-2-2-----------2-2-2-2--|-----4------|
C|--2-2-2-2--4-4-4-4--2-2-2-2--2-2-2-2--4-4-4-4--2-2-2-2--|-----4------|
G|--0-0-0-0--4-4-4-4--2-2-2-2--0-0-0-0--4-4-4-4--0-0-0-0--|-----2------|
C|-----------4-4-4-4--2-2-2-2-----------4-4-4-4-----------|------------|

Chorus
(Strum)

D|-------------------------|------------------------|
A|-------------------------|------------------------|
F|--------2-----------2----|--6-----2-----6-----2---|
C|--2-----2-----2-----2----|--6-----2-----6-----2---|
G|--2-----0-----2-----0----|--4-----0-----4-----0---|
C|--2-----------2----------|------------------------|

Guitar 2
(Strum)[listen for pattern]        End with
D|-----|------------------------|---------------|
A|-----|------------------------|---------------|
F|--9--|----6--8--9---4--8--9---|---9-8-6-4-2---|
C|--x--|----x--x--x---x--x--x---|---------------|
G|--7--|----4--6--7---2--6--7---|---7-6-4-2-0---|
C|-----|------------------------|---------------|
   x4   Once and then first half

Guitar 1
Interlude/Breakdown

D|--------------------------------|
A|--------------------------------|
F|--------------------------------|
C|--------------------------------|
G|---4-----7-----4-----4----------|
C|-----6-7---6-7---6-7---7s9------|

Guitar 2
D|--------------------------------------|
A|--------------------------------------|
F|--------------------------------------|
C|--0-0-0----0-0-0----0-0-0----0-0-0----|
G|--0-0-0----0-0-0----0-0-0----0-0-0----|
C|--0-0-0----0-0-0----0-0-0----0-0-0----|
    . .      . .      . .      . .

Gwen Stacy
My Friends Over You (Cover)
Drop C

Those of you who aren't familiar with this song, its Gwen Stacys hardcore version of NFG 
my friends over you.

Guitar 1

D|-----------------|------------------|-----------------|------------------|
A|-----------------|------------------|-----------------|------------------|
F|-----------------|---2-2-2---2-2----|-----------------|---2-2-2---2-2---2|
C|-2-2-2---2-2---2-|---2-2-2---2-2---2|-2-2-2---2-2---2-|---2-2-2---2-2---2|
G|-2-2-2---2-2---2-|---0-0-0---0-0---0|-2-2-2---2-2---2-|---0-0-0---0-0---0|
C|-2-2-2---2-2---2-|------------------|-2-2-2---2-2---2-|------------------|
           . .                 . .              . .                 . .

Guitar 2

D|-----------------------------------------|
A|----------9------------------9-----------|
F|--11-9-11---11-9-9-11-9-9-11---11-9-9-9--|
C|-----------------------------------------|
G|-----------------------------------------|
C|-----------------------------------------|

Pre Chorus
(Don't let notes ring)                                      (Strum)
D|-------------------------------------------------------|------------|
A|-------------------------------------------------------|------------|
F|--2-2-2-2-----------2-2-2-2-----------2-2-2-2----------|-----4------|
C|--2-2-2-2--4-4-4-4--2-2-2-2--2-2-2-2--2-2-2-2--4-4-4-4-|-----4------|
G|--0-0-0-0--4-4-4-4--0-0-0-0--2-2-2-2--0-0-0-0--4-4-4-4-|-----2------|
C|-----------4-4-4-4-----------2-2-2-2-----------4-4-4-4-|------------|

Chorus
(Strum)

D|-------------------------|------------------------|
A|-------------------------|------------------------|
F|--------2-----------2----|--6-----2-----6-----2---|
C|--2-----2-----2-----2----|--6-----2-----6-----2---|
G|--2-----0-----2-----0----|--4-----0-----4-----0---|
C|--2-----------2----------|------------------------|


Guitar 1
Interlude/Breakdown

D|--------------------------------|
A|--------------------------------|
F|--------------------------------|
C|--------------------------------|
G|---4-----7-----4-----4----------|
C|-----6-7---6-7---6-7---7s9------|

Guitar 2
D|--------------------------------------|
A|--------------------------------------|
F|--------------------------------------|
C|--0-0-0----0-0-0----0-0-0----0-0-0----|
G|--0-0-0----0-0-0----0-0-0----0-0-0----|
C|--0-0-0----0-0-0----0-0-0----0-0-0----|
    . .      . .      . .      . .

Guitar 1
Verse
D|-----------------------|---------|
A|-----------------------|---------|
F|--6--2--4-----6--4--2--|---------|
C|--6--2--4-----6--4--2--|----4~~~-| x2
G|--4--0--2-----4--2--0--|----4~~~-|
C|-----------------------|----4~~~-|


Finishing missing parts soon
Добавлено: 01.05.2012
Другие материалы по этой песне:
  • Аккорды и текст

Страница создана 01.05.2012
http://primanota.ru/gwen-stacy/my-friends-over-you-cover-chords.htm
Привет, Гость.
Предлагаем пройти революционный курс по гитаре.
Подарок от PrimaNota.Ru, забирай!