PrimaNota.ru - самый крупный в мире бесплатный архив песенных текстов, аккордов, табулатур и нот


Gwen Stacy - If We Live Right We Cant Die Wrong - таба, бас-таба, видео

Регистрация Запомнить меня
Войти через:  Facebook Google Twitter Vk Yandex Mail.ru

Gwen Stacy - If We Live Right We Cant Die Wrong - таба, бас-таба, видео

Печатать
Просмотров: 151
If We Live Right We Can't Die Wrong by Gwen Stacy
Tuning: Drop C

/=slide up
\=slide down
~=let ring

1st guitar:
D|-15~------------------------------------------------------------------|
A|----------------------------------------------------------------------|
F|--------------------------9------------------------9------------------|
C|------10-10-10-10-9---9-12-9-9-10-10-10-10-9---9-12-9-9-22-222~22-222~|
G|------10-10-10-10--10----------10-10-10-10--10----------22-222~22-222~|
C|------10-10-10-10--------------10-10-10-10--------------22-222~22-222~|

2nd guitar:
D|------------------------------------------------------------------------|
A|----------------7-8-7-7---------------7-8-7-7---------------------------|
F|-------------7-7-------------------7-7----------------------------------|
C|-10-10-10-10--9--------10-10-10-10--9------------22-222~22-222~-3~3~3~3-|
G|-10-10-10-10-----------10-10-10-10---------------22-222~22-222~-3~3~3~3-|
C|-10-10-10-10-----------10-10-10-10---------------22-222~22-222~-3~3~3~3-|

(0:38) strumming might not be correct, but it's close
D|-------------------------------------------------|
A|-------------------------------------------------|
F|-999999999999-11111111-1212121212121212-77777777-| (4x)
C|-xxxxxxxxxxxx-x-x-x-x--x-x-x-x-x-x-x-x--xxxxxxxx-|
G|-777777777777-9-9-9-9--1010101010101010-55555555-|
C|-------------------------------------------------|

D|-------------------------------------|
A|-------------------------------------|
F|-------------------------------------|
C|-222-33-222-33-----222-3333-55555555-| (2x)
G|-222-33-222-33-----222-3333-55555555-|
C|-222-33-222-33-15\-222-3333-55555555-|
   ...    ...        ...

play 2 more times then play through chorus
D|-------------------------------------------------|
A|-------------------------------------------------|
F|-999999999999-11111111-1212121212121212-77777777-| 
C|-xxxxxxxxxxxx-x-x-x-x--x-x-x-x-x-x-x-x--xxxxxxxx-|
G|-777777777777-9-9-9-9--1010101010101010-55555555-|
C|-------------------------------------------------|

D|-----------------------------------------|
A|-----------------------------------------|
F|----------------5555----------------5555-|
C|-0-00-00000-000-5555-0-00-00000-000-5555-|
G|-0-00-00000-000-3333-0-00-00000-000-3333-|
C|-0-00-00000-000------0-00-00000-000------|
   . .. ..... ...      . .. ..... ...

this part was kinda hard to figure out so it may not be 100% right:
D|--------------------------------------------------------------|
A|------7-7-7-----7----------7-7-----7-7-7-------7-7-----7-7-7--|
F|------x-x-x-----x-(9x)-----x-x-----x-x-x-------x-x-----x-x-x--|
C|-0000-101010-00-10-----000-1010-00-101010-0000-1010-00-101010-|
G|-0000--------00--------000------00--------0000------00--------|
C|-0000--------00--------000------00--------0000------00--------|
   ....        ..        ...      ..        ....      ..

D|--------------------|
A|-----7-7-----7-7-7--|
F|-----x-x-----x-x-x--|
C|-000-1010-00-101010-|
G|-000------00--------|
C|-000------00--------|
   ...      ..

(2:00) 1st guitar:
D|----------------------------------------------------------------------|
A|----------------------------------------------------------------------|
F|-4-5-4-4-4-5-0--4-5-4-4-5-7---------4-5-4-4-5-4-0---------4-5-4-4-5-7-|
C|----------------------------22222222--------------22222222------------|
G|----------------------------22222222--------------22222222------------|
C|----------------------------22222222--------------22222222------------|

D|------------------|
A|------------------|
F|---------11-------|
C|-5-------x--(16x)-|
G|-5-(16x)-9--------|
C|-5----------------|

D|-----------------------------------------3------------------|
A|---------3-5-3-3-5-3-0---------3-5-3-3-5--------------------|
F|----------------------------------------------------11------|
C|-22222222--------------22222222-------------5-------x-(16x)-|
G|-22222222--------------22222222-------------5-(16x)-9-------|
C|-22222222--------------22222222-------------5---------------|

D|------------|
A|------------|
F|------------|
C|-1-1-11-1-1-|(4x)
G|-1-1-11-1-1-|
C|-1-1-11-1-1-|
   . . .. . .

D|---------------------|
A|---------------------|
F|----------------5555-|
C|-0000-0000-0000-5555-| (4x, 4th time let ring)
G|-0000-0000-0000-3333-|
C|-0000-0000-0000------|
   .... .... ....

play through chorus:
D|-------------------------------------------------|
A|-------------------------------------------------|
F|-999999999999-11111111-1212121212121212-77777777-| 
C|-xxxxxxxxxxxx-x-x-x-x--x-x-x-x-x-x-x-x--xxxxxxxx-|
G|-777777777777-9-9-9-9--1010101010101010-55555555-|
C|-------------------------------------------------|

D|------------------------------|
A|------------------------------|
F|-5~/-9~/-12~/-14~/-17~\5-5~-7~|
C|-5~/-x~/-x-~/-x-~/-x-~\5-5~-7~|
G|-3~/-7~/-10~/-12~/-15~\3-3~-0~|
C|------------------------------|
Добавлено: 27.04.2012
Другие материалы по этой песне:

Страница создана 27.04.2012
http://primanota.ru/gwen-stacy/if-we-live-right-we-cant-die-wrong-chords.htm
Привет, Гость.
Предлагаем пройти революционный курс по гитаре.
Подарок от PrimaNota.Ru, забирай!