PrimaNota.ru - самый крупный в мире бесплатный архив песенных текстов, аккордов, табулатур и нот


Gwen Stacy - Gun Held To The Head Of The World - текст песни, таба, видео

Регистрация Запомнить меня
Войти через:  Facebook Google Twitter Vk Yandex Mail.ru

Gwen Stacy - Gun Held To The Head Of The World - текст песни, таба, видео

Печатать
Просмотров: 131
www.purevolume.com/gwenstacy

www.myspace.com/gwenstacy



TUNING: CGCFAD

. = palm mute
~ = let ring 
* = harmonic
h = hammer on
p = pull off



D|-----------------------------------------------------------------------|
A|-----------------------------------------------------------------------|
F|---7-7-------------7-7-7-----------------------------------------------|
C|---6-6-------0~----6-6-6---5-4-0-3-0-5-4-0-3-0-3-0-5-4-3-0-------------|
G|---5-5-------0~----5-5-5---5-4-0-3-0-5-4-0-3-0-3-0-5-4-3-0-------------|
C|--------000--0~------------5-4-0-3-0-5-4-0-3-0-3-0-5-4-3-0-------------|
          ... 

D|-------------------------------|
A|-------------------------------|
F|-----------------7-7-7-7-7-----|
C|-0-0-1-0-3-1-0---6-6-6-6-6-----|
G|-0-0-1-0-3-1-0---5-5-5-5-5-----|
C|-0-0-1-0-3-1-0-----------------|  REPEAT 3 TIMES


D|------------------------------------------------------|
A|------------------------------------------------------|
F|------------------------------------------------------|
C|--5-4-3-3-5-4-3-3-3-5-4-3-0---------------------------|
G|--5-4-3-3-5-4-3-3-3-5-4-3-0---------------------------|
C|--5-4-3-3-5-4-3-3-3-5-4-3-0---------------------------|


D|-------------------------------|
A|-------------------------------|
F|-----------------7-7-7-7-7-----|
C|-0-0-1-0-3-1-0---6-6-6-6-6-----|
G|-0-0-1-0-3-1-0---5-5-5-5-5-----|
C|-0-0-1-0-3-1-0-----------------| REPEAT 3 TIMES


D|-----------------------------------------|
A|-----------------------------------------|
F|-----------------------------------------|
C|--5-4-0-3-0-5-4-0-3-0-3-0-5-4-3~---------|
G|--5-4-0-3-0-5-4-0-3-0-3-0-5-4-3~---------|
C|--5-4-0-3-0-5-4-0-3-0-3-0-5-4-3~---------| REPEAT 4 TIMES


D|--------------------------------------------------|
A|--------------------------------------------------|
F|--------------------------------------------------|
C|-7---0-1-0-3-1-0------------------0---------------|
G|-6---0-1-0-3-1-0------------------0---------------|
C|-5---0-1-0-3-1-0--repeat 3 times--0-0-0-0-0-0-0---| REPEAT TWICE
                                      . . . . . .

(chorus)

 guitar 1 (10,12) (13,15)
D|-----------------------------------------------------------------------|
A|-----------------------------------------------------------------------|
F|-|12|-121212121212121212121212--|15|-151515151515151515151515----------|
C|-|-x|--x-x-x-x-x-x-x-x-x-x-x-x--|-x|--x-x-x-x-x-x-x-x-x-x-x-x----------|
G|-|10|-101010101010101010101010--|13|-131313131313131313131313----------|
C|-----------------------------------------------------------------------|

D|-----------------------------------------------------------------------|
A|-----------------------------------------------------------------------|
F|-|17|-171717171717171717171717--|19|-191919191919191919191919----------|
C|-|-x|--x-x-x-x-x-x-x-x-x-x-x-x--|-x|--x-x-x-x-x-x-x-x-x-x-x-x----------|
G|-|15|-151515151515151515151515--|17|-171717171717171717171717----------|
C|-----------------------------------------------------------------------|

guitar2(ones not elevens) 
D|-----------------------------------------------------------------------|
A|-----------------------------------------------------------------------|
F|-----------------------------------------------------------------------|
C|-1-11-111-111-111--5-55-555-555-555--3-33-333-333-333--8-88-888-888-888|
G|-1-11-111-111-111--5-55-555-555-555--3-33-333-333-333--8-88-888-888-888|
C|-1-11-111-111-111--5-55-555-555-555--3-33-333-333-333--8-88-888-888-888|
REPEAT TWICE 


D|---------------------------------------------------------------|
A|---------------------------------------------------------------|
F|---------------------------------------------------------------|
C|-3h55-xxxxxxxxx---3h55--5*********---3h55-xxxxxxxxx------------|
G|-3h55-xxxxxxxxx---3h55--5*********---3h55-xxxxxxxxx------------|
C|-3h55-xxxxxxxxx---3h55--5*********---3h55-xxxxxxxxx------------|

    guitar 1                       guitar 2 
D|----------------------------|-----------------------------------------|
A|----------------------------|-----------------------------------------|
F|---5-5-5-5-5-5--7-7-7-7-7-7-|---9-9-9-9-9-9--10-10-10-10-10-10--------|
C|---x-x-x-x-x-x--x-x-x-x-x-x-|---x-x-x-x-x-x---x--x--x--x--x--x--------|
G|---3-3-3-3-3-3--5-5-5-5-5-5-|---7-7-7-7-7-7---8--8--8--8--8--8--------|
C|----------------------------|-----------------------------------------|

REPEAT THAT  


 BREAKDOWN BOI!!! 
D|-------------------------------------------------|
A|-------------------------------------------------|
F|-------------------------------------------------|
C|--0-0-0-0------0---0-0-0-0-----0---0-0----------0|
G|--0-0-0-0------0---0-0-0-0-----0---0-0----------0|
C|--0-0-0-0--00000---0-0-0-0-00000---0-0-000--00000|
    . . . .  .....   . . . . .....   . . ...  .....


D|------------------------------------------------------------------|
A|------------------------------------------------------------------|
F|------------------------------------------------------------------|
C|--0-0-0-0------0---0-0-0--------0~-0-0-0-0-----0~--0-0---0------0~|
G|--0-0-0-0------0---0-0-0-4*-----0~-0-0-0-0-----0~--0-0---0------0~|
C|--0-0-0-0--00000---0-0-0----00000~-0-0-0-0-00000~--0-0-000--00000~| 
    . . . .  .....   . . .    .....  . . . . .....   . . ...  .....


D--------------------------------------------------------|
A--------------------------------------------------------|
F--------------------------------------------------------|
C--0-0-0-0------0~---0-0---0~--0~~~~~~~---3---3---3---3~-|
G--0-0-0-0------0~---0-0---0~--0~~~~~~~---3---3---3---3~-|
C--0-0-0-0--00000~---0-0-000~--0~~~~~~~---3---3---3---3~-|
   . . . .  .....    . . ...  

D|------------------------------------------------------------|
A|------------------------------------------------------------|
F|-------------------------------------6-6-6---77-------------|
C|-0~--0~--0~--3~----0~--0~--0~--3~----5-5-5---66---------0~--|
G|-0~--0~--0~--3~----0~--0~--0~--3~----4-4-4---55---------0~--|
C|-0~--0~--0~--3~----0~--0~--0~--3~-------------------000-0~--|
                                                      ...

D|-------------------------------|
A|-------------------------------|
F|-------------------------------|
C|-7-7-7-77------0~--3p0h3h5-----|
G|-6-6-6-66------0~--3p0h3h5-----|
C|-5-5-5-55--000-0~--3p0h3h5-----|
             ...


D|--------------------------------------------------|
A|--------------------------------------------------|
F|--------------------------------------------------|
C|--------0---0-0-0-0-----0---0-0---0-------0-------|
G|--------0---0-0-0-0-----0---0-0---0-------0-------|
C|----00000---0-0-0-0-00000---0-0-000---00000-------|
      .....   . . . . .....   . . ...  .....


D|------------------------------------------------|
A|------------------------------------------------|
F|------------------------------------------------|
C|--0-0-0-0------0-----0-0----------0-------------|
G|--0-0-0-0------0-----0-0----------0-------------|
C|--0-0-0-0--00000-----0-0-000--00000-------------|
    . . . .  .....     . . ...  .....


D|------------------------------------------------|
A|------------------------------------------------|
F|------------------------------------------------|
C|--0-0-0-0------0-----0-0---0-------0-------------|
G|--0-0-0-0------0-----0-0---0-------0-------------|
C|--0-0-0-0--00000-----0-0-000---00000-------------|
    . . . .  .....     . . ...   .....

D|------------------------------------------------|
A|------------------------------------------------|
F|------------------------------------------------|
C|--0-0-0-0------0-----0-0------1~----------------|
G|--0-0-0-0------0-----0-0------1~----------------|
C|--0-0-0-0--00000-----0-0-000--1~----------------|
    . . . .  .....     . . ...  

     guitar 1        guitar 2 
D|---------------|---------------|
A|---------------|---------------|
F|-12-12-12------|---------------|
C|--x--x--x------|-1-1-1---------|
G|-10-10-10------|-1-1-1---------|
C|---------------|-1-1-1---------| now take a lonnnnnnnng pause

   guitar 1 
D|-----------------------------------------------------------------------|
A|-----------------------------------------------------------------------|
F|-|12|-121212121212121212121212--|15|-151515151515151515151515----------|
C|-|-x|--x-x-x-x-x-x-x-x-x-x-x-x--|-x|--x-x-x-x-x-x-x-x-x-x-x-x----------|
G|-|10|-101010101010101010101010--|13|-131313131313131313131313----------|
C|-----------------------------------------------------------------------|
         listen to song for strumming
D|-----------------------------------------------------------------------|
A|-----------------------------------------------------------------------|
F|-|17|-171717171717171717171717--|19|-191919191919191919191919----------|
C|-|-x|--x-x-x-x-x-x-x-x-x-x-x-x--|-x|--x-x-x-x-x-x-x-x-x-x-x-x----------|
G|-|15|-151515151515151515151515--|17|-171717171717171717171717----------|
C|-----------------------------------------------------------------------|

  
   guitar2(ones not elevens) 
D|-----------------------------------------------------------------------|
A|-----------------------------------------------------------------------|
F|-----------------------------------------------------------------------|
C|-1-11-111-111-111--5-55-555-555-555--3-33-333-333-333--8-88-888-888-888|
G|-1-11-111-111-111--5-55-555-555-555--3-33-333-333-333--8-88-888-888-888|
C|-1-11-111-111-111--5-55-555-555-555--3-33-333-333-333--8-88-888-888-888|


     guitar 1         
D|------------------------------------------------------------------|
A|------------------------------------------------------------------|
F|-12-12-12---12-12---15-15-15---15-15---17-17-17---17-17---|19 ----|
C|--x--x--x----x--x----x--x--x----x--x----x--x--x----x--x---|-x-----|
G|-10-10-10---10-10---13-13-13---13-13---15-15-15---15-15---|17(x12)|
C|------------------------------------------------------------------|
                                                           |^^^^^^^^|
                                                           |12 times|

   guitar 2 
D----------------------------------------------------------------|
A----------------------------------------------------------------|
F----------------------------------------------------------------|
C-1-1-1---1-1---5-5-5---5-5---3-3-3---3-3---8-88-888-888-888-----|
G-1-1-1---1-1---5-5-5---5-5---3-3-3---3-3---8-88-888-888-888-----|
C-1-1-1---1-1---5-5-5---5-5---3-3-3---3-3---8-88-888-888-888-----|


   guitar 1 
D|-----------------------------------------------------------------------|
A|-----------------------------------------------------------------------|
F|-|12|-121212121212121212121212--|15|-151515151515151515151515----------|
C|-|-x|--x-x-x-x-x-x-x-x-x-x-x-x--|-x|--x-x-x-x-x-x-x-x-x-x-x-x----------|
G|-|10|-101010101010101010101010--|13|-131313131313131313131313----------|
C|-----------------------------------------------------------------------|

D|-----------------------------------------------------------------------|
A|-----------------------------------------------------------------------|
F|-|17|-171717171717171717171717--|19|-191919191919191919191919----------|
C|-|-x|--x-x-x-x-x-x-x-x-x-x-x-x--|-x|--x-x-x-x-x-x-x-x-x-x-x-x----------|
G|-|15|-151515151515151515151515--|17|-171717171717171717171717----------|
C|-----------------------------------------------------------------------|

  
   guitar2(ones not elevens) 
D|-----------------------------------------------------------------------|
A|-----------------------------------------------------------------------|
F|-----------------------------------------------------------------------|
C|-1-11-111-111-111--5-55-555-555-555--3-33-333-333-333--8-88-888-888-888|
G|-1-11-111-111-111--5-55-555-555-555--3-33-333-333-333--8-88-888-888-888|
C|-1-11-111-111-111--5-55-555-555-555--3-33-333-333-333--8-88-888-888-888|
REPEAT TWICE


|----------|
|----------|
|----------|
|--0~~~----|
|--0~~~----|
|--0~~~----|


D|-------------------------------------------------------------|
A|-------------------------------------------------------------|
F|-------------------------------------------------------------|
C|-------------------------------------------------------------|
G|-------------------------------------------------------------|
C|-5-4-0-3-0-5-4-0-3-0-3-0-5-4-3-0-5-4-0-3-0-5-4-0-3-0-3-0-0---|


D|-----------------------------------------------------------------|
A|-----------------------------------------------------------------|
F|-----------------------------------------------------------------|
C|-5-4-0-3-0-5-4-0-3-0-3-0-5-4-3-0-5-4-0-3-0-5-4-0-3-0-3-0-5-4-3-0-|
G|-5-4-0-3-0-5-4-0-3-0-3-0-5-4-3-0-5-4-0-3-0-5-4-0-3-0-3-0-5-4-3-0-|
C|-5-4-0-3-0-5-4-0-3-0-3-0-5-4-3-0-5-4-0-3-0-5-4-0-3-0-3-0-5-4-3-0-|
repeat twice



D|---------------------------------------------------------------------|
A|---------------------------------------------------------------------|
F|---------------------------------------------------------------------|
C|-5-4-0-3---5-4-0-3-0-3-0---5-4-0-3---5-4-0-3-0-3-0---5-4-0-3---------|
G|-5-4-0-3---5-4-0-3-0-3-0---5-4-0-3---5-4-0-3-0-3-0---5-4-0-3---------|
C|-5-4-0-3---5-4-0-3-0-3-0---5-4-0-3---5-4-0-3-0-3-0---5-4-0-3-000-000-|
                                                               ... ...

D|---------------------------------|
A|---------------------------------|
F|---------------------------------|
C|-5-4-0-3-0-3-0---5-4-0-3---------|
G|-5-4-0-3-0-3-0---5-4-0-3---------|
C|-5-4-0-3-0-3-0---5-4-0-3---------|
Добавлено: 31.03.2012
Другие материалы по этой песне:
  • Аккорды и текст

Страница создана 31.03.2012
http://primanota.ru/gwen-stacy/gun-held-to-the-head-of-the-world-chords.htm
Привет, Гость.
Предлагаем пройти революционный курс по гитаре.
Подарок от PrimaNota.Ru, забирай!