PrimaNota.ru - самый крупный в мире бесплатный архив песенных текстов, аккордов, табулатур и нот


Gwen Stacy - Gone Fishing See You In A Year - текст песни, таба, бас-таба, видео

Регистрация Запомнить меня
Войти через:  Facebook Google Twitter Vk Yandex Mail.ru

Gwen Stacy - Gone Fishing See You In A Year - текст песни, таба, бас-таба, видео

Печатать
Просмотров: 138
Gwen Stacy is one of my favorite bands. I wish more people would listen to them so I
have to tab this thing out. This took me a while to tab, so please tell me about mistakes
I made. And if you want to copy from this tab mention my name. This is the first tab for 
song online.

The Life I Know comes out Feb. 5.

My name is Ben.
Email:poppyben@gmail.com
Myspace:www.myspace.com/benthedragongod

This is my first tab, so here goes nothing.

Gwen Stacy – Gone Fishing See You in A Year

Legend
S – slide
X – Mute note
V – Vibrato
*(P.H) - Pinch Harmonic
*(N.H) – Natural Harmonic
p – pull-off
h – hammer-on

Tuning: Drop C (C G C F A D)

Intro

|----------------------------------------------------------------|
|----------------------------------------------------------------|
|----------------------------------------------------------------|
|---00---00000----00-0--00000------------------------------------|
|---00---00000----00-0--00000------------------------------------|
|---00---00000----00-0--00000------------------------------------|x3
Pm  ..   .....    .. .  .....

|----------------------------------------------------------------|
|----------------------------------------------------------------|
|----------------------------------------------------------------|
|---00---00000----00-0—-000--------------------------------------|
|---00---00000----00-0--000-5*v(P.H)-----------------------------|
|---00---00000----00-0--000--------------------------------------|
Pm  ..   .....    .. .  ...


|----------------------------------------------------------------|
|----------------------------------------------------------------|
|----------------------------------------------------------------|
|---00~~---00000~~----00~-0~--00000~~----------------------------|
|---00~~---00000~~----00~-0~--00000~~----------------------------|
|---00~~---00000~~----00~-0~--00000~~----------------------------|
Pm  ..     .....      ..  .   .....


|----------------------------------------------------------------|
|----------------------------------------------------------------|
|----------------------------------------------------------------|
|---00~~---00000~~---00~-0~--000---------------------------------|
|---00~~---00000~~---00~-0~--000—(P.H)---------------------------|
|---00~~---00000~~---00~-0~--000-5*v-----------------------------|
Pm  ..     .....     ..  .   ...

|---------------------------------|
|---------------------------------|
|---------------------------------|
|---00---00000----00-0--00000-----|
|---00---00000----00-0--00000-----|
|---00---00000----00-0--00000-----|x2
Pm  ..   .....    .. .  .....

Then
|--------------------------------------|
|--------------------8---------7-------|
|--------------------x-(x6)----x-(x6)--|
|---2~~--------------5---------4-------|
|---2~~--------------------------------|
|---2~~--------------------------------|

Verse

|---------------------------------------|
|--5--------8-------10------77777s8-----|
|--x-(x14)--x-(x4)--x-(x2)--xxxxxsx-----|
|--2--------5-------7-------44444s5-----|
|---------------------------------------|
|---------------------------------------|x4

Breakdown
|-------------------------------------------------------|
|-------------------------------------------------------|
|-------------------------------------------------------|
|-22222--22222------2-22222---0-3-0-2-------------------|
|-22222--22222------2-22222---0-3-0-2-------------------|
|-22222--22222------2-22222---0-3-0-2-------------------|x2
Pm.....  .....      . .....   . . . .

|------------------------------------------------------------------|
|------------------------------------------------------------------|
|--------------------------------12121212121212121212--------------|
|---1010101010----10-10101010101012121212121212121212--7-----------|
|---1010101010s3--10-10101010101010101010101010101010—-7(x28)------|
|---1010101010s3--10-10101010101010101010101010101010--7-----------|x2
          ^    ^
        10's  slow

Guitar 1
|-------0-----------|
|-------x-----------|
|-------7-----------|
|-------7-(strum)---|<<< Not sure about this chord
|-------7-----------|
|-------------------|

Guitar 2
|-------------------------------------------------------|
|-------------------------------------------------------|
|-------------------------------------------------------|
|-22222--22222------2-22222---0-3-0-2-------------------|
|-22222--22222------2-22222---0-3-0-2-------------------|
|-22222--22222------2-22222---0-3-0-2-------------------|x2
Pm.....  .....      . .....   . . . .


Guitar 1&2
|-------------------------------------------------------|
|-------------------------------------------------------|
|-------------------------------------------------------|
|-22222--22222------2-22222---0-3-0-2-------------------|
|-22222--22222------2-22222---0-3-0-2-------------------|
|-22222--22222------2-22222---0-3-0-2-------------------|x2
Pm.....  .....      . .....   . . . .

Back to Verse
|---------------------------------------|
|--5--------8-------10------77777s8-----|
|--x-(x14)--x-(x4)--x-(x2)--xxxxxsx-----|
|--2--------5-------7-------44444s5-----|
|---------------------------------------|
|---------------------------------------|x4

Interlude 1
|---------------------------------------------|
|--5555--5555--55----5555--55-----------------|
|--xxxx--xxxx--xx----xxxx--xx-----------------|
|--2222--2222--22----2222--22---222-222-------|
|-------------------------------222-222-------|
|-------------------------------222-222-------|x2
Pm                              ... ...

Breakdown
|-----------------------------------------------------------------|
|-----------------------------------------------------------------|
|-----------------------------------------------------------------|
|-0-0-0-0—-0-0-0-0--0-0---------0-0-0-0--0-0-0-0--00-0-0-0--------|
|-0-0-0-0--0-0-0-0--0-0—(break)-0-0-0-0--0-0-0-0--00-0-0-0--------|
|-0-0-0-0--0-0-0-0--0-0---------0-0-0-0--0-0-0-0--00-0-0-0--------|
Pm                                                .. . . .

Interlude 2
|------------------------------------------------------------------|
|------------------------------------------------------------------|
|------------------5--------7------9------12-----------------------|
|--2-------0-------5—(x8)---x-(x8)-x-(x8)-x--(x8)---2-------0------|
|--2-(x16)-0-(x16)-3--------5------7------10--------2-(x16)-0-(x16)|
|--2-------0----------------------------------------2-------0------|x2

Interlude 2 cont. (listen to song for timing)
|-----------------------------------------------------7*---------12*---|
|-----------------------------------------------------^---7*------^----|
|--------0----5-----------0----5s7----------0----5s7------^------------|
|-----5---------------5-----------------5-------------------(N.H)------|
|--7---------------7-----------------7---------------------------------|
|----------------------------------------------------------------------|x2

|-----------------------------------------------------------------|
|-----------------------------------------------------------------|
|---7p0—5p0-4p0-4h5--0-(x2)----2p0-4p0-5p0-7p5-0-4p0(x2)----------|
|-----------------------------------------------------------------|
|-----------------------------------------------------------------|
|-----------------------------------------------------------------|x2
Then
|----------------------------------|
|----------------------------------|
|---7p0-5p0-4p0-4h5-0--2-----------|
|-------------------------4--------|
|----------------------------------|
|----------------------------------|

Breakdown 2
|---------------------------------------------------------------|
|---------------------------------------------------------------|
|---------------4p0----------4p0-5p0-4p0------------------------|
|--22---4p0--2------2---4p0-------------------------------------|
|--22--------2------2-------------------------------------------|
|--22--------2------2-------------------------------------------|x2
Pm ..        .      .

Breakdown 2 cont. (tapping)
|------------------------------------------------------------------|
|------------------------------------------------------------------|
|----5p0-7p0-9p0-7p0-(x2)------7p0-9p0-11p0-9p0-(x2)---------------|
|------------------------------------------------------------------|
|------------------------------------------------------------------|
|------------------------------------------------------------------|

This again
|---------------------------------------------------------------|
|---------------------------------------------------------------|
|---------------4p0----------4p0-5p0-4p0------------------------|
|--22---4p0--2------2---4p0-------------------------------------|
|--22--------2------2-------------------------------------------|
|--22--------2------2-------------------------------------------|x2
Pm ..        .      .


|-------------------------------------------------------------------|
|-------------------------------------------------------------------|
|-------------------------------------------------------------------|
|--22----2--2-----222--222---------0~~------------------------------|
|--22----2--2-----222--222—(x4)----0~~------------------------------|
|--22—---2--2-----222--222---------0~~------------------------------|

Outro (Same as Intro)
|---------------------------------|
|---------------------------------|
|---------------------------------|
|---00---00000----00-0--00000-----|
|---00---00000----00-0--00000-----|
|---00---00000----00-0--00000-----|x4
Pm  ..   .....    .. .  .....

http://www.myspace.com/gwenstacy
Добавлено: 18.03.2012
Другие материалы по этой песне:

Страница создана 12.03.2012
http://primanota.ru/gwen-stacy/gone-fishing-see-you-in-a-year-chords.htm
Привет, Гость.
Предлагаем пройти революционный курс по гитаре.
Подарок от PrimaNota.Ru, забирай!