PrimaNota.ru - самый крупный в мире бесплатный архив песенных текстов, аккордов, табулатур и нот


Gwar - Zombies March - бас-таба, видео

Регистрация Запомнить меня
Войти через:  Facebook Google Twitter Vk Yandex Mail.ru

Gwar - Zombies March - бас-таба, видео

Печатать
Просмотров: 106
-------------------------------------------------------------------------------
                             Zombies March - GWAR
-------------------------------------------------------------------------------
Tabbed by: Killjoy Bassist
E-mail: killjoybassist@gmail.com

Tuning: Full-Step Down Drop C (FCGC)

I may not have all the numbers of notes right, so try to listen to the song for things

Unless your known as lightning fingers, you might wanna use a pick for this

F|---------------------------------------------------------------------------|
C|---------------------------------------------------------------------------|
G|----------------------------------------------------5/---------------------|
C|-3~----1~---0~------------3~----1~---0~----30303030------------------------|

F|---------------------------------------------------------------------------|  x2
C|---------------------------------------------------------------------------|
G|---------------------------------------------------------------------------|
C|-0-3-000000-53-00-42-00-23-0000-222-111-333-555----------------------------|

F|---------------------------------------------------------------------------|  x4
C|---------------------------------------------------------------------------|
G|----------------------------32---32----------------------------------------|
C|-0303030303030303030303030-----0-------------------------------------------|

F|---------------------------------------------------------------------------|
C|---------------------------------------------------------------------------|
G|---------------------------------------------------------------------------|
C|-4-000000000-464-0000-4-000000000-464-000-640-00000-464-000-3-3-3-332------|

F|---------------------------------------------------------------------------|
C|---------------------------------------------------------------------------|
G|---------------------------------------------------------------------------|
C|-444444444444/333333/666666/5555555555/888888/999999-----------------------|
                                                                             x2
F|---------------------------------------------------------------------------|
C|---------------------------------------------------------------------------|
G|---------------------------------------------------------------------------|
C|-444444444444/777777/666666/3333333333/222222222222------------------------|

F|---------------------------------------------------------------------------|
C|---------------------------------------------------------------------------|
G|---------------------------------------------------------------------------|
C|-4~-------3~--------------4~-----------3~-----1~---------------------------|

F|---------------------------------------------------------------------------|
C|---------------------------------------------------------------------------|
G|---------------------------------------------------------------------------|
C|3--3-3--3-5-2-1/9\-3--3-3--3-5-4-3/9\-2--2-2--2-4-3-2/8\-1--1-1--1-3-2-1/6\|

F|---------------------------------------------------------------------------| x2
C|-----------5---2------------7---5------------------------------------------|
G|---------5---5------------7---7--------------------------------------------|
C|-1-1101----------3-1-1101---------5-5h7-5h7-5h7-5h75h7-4-4h6-4h6-4h6-4h64h6|

F|-------------------------------------| x4
C|-------------------------------------|
G|---------------------------44-3-0-5--|
C|-6-00000000-6-0-66-3-00000-----------|

F|-----------------| x9  |-------------------------------|
C|-----------------|     |-------------------------------|
G|-----------------|     |-------------------------------|
C|-4-4-444-7-7-777-|     |-2h4-0-5p4-0-2h4-0-2-2222-33-4-|

F|-----------------------------------------------------------------------| Half mute the open notes
C|-----------------------------------------------------------------------| so they sound staccato 
G|-----------------------------------------------------------------------|
C|-00-00-00-00-00-05-54-00-00-00-00-00-02-2-4-00-00-00-00-00-05-54-------|
                                                                          x2
F|-----------------------------------------------------------------------|
C|-----------------------------------------------------------------------|
G|-----------------------------------------------------------------------|
C|-00-00-00-00-00-02-2222-33-4-------------------------------------------|
                                                    
F|-------------------------|x3|------------------------| x2
C|-------------------------||--------------------------|
G|-88-66-------------------||-88-66----------9-99-9911-| 10's and 11's not 1's and 0's
C|-------1010-99-7777-8888-||-------1010-99------------|

Then finish with F|-----------|
                 C|-----------|
                 G|-----------|
                 C|-4---------|

| /  slide up
| \  slide down
| h  hammer-on
| p  pull-off
| ~  vibrato
| +  harmonic
| x  Mute note
===============================================================================
Добавлено: 01.11.2013
Другие материалы по этой песне:
  • Аккорды и текст

Страница создана 24.10.2013
http://primanota.ru/gwar/zombies-march-chords.htm
Привет, Гость.
Предлагаем пройти революционный курс по гитаре.
Подарок от PrimaNota.Ru, забирай!