PrimaNota.ru - самый крупный в мире бесплатный архив песенных текстов, аккордов, табулатур и нот


Gwar - You Cant Kill Terror - текст песни, таба, видео

Регистрация Запомнить меня
Войти через:  Facebook Google Twitter Vk Yandex Mail.ru

Gwar - You Cant Kill Terror - текст песни, таба, видео

Печатать
Просмотров: 122
Уроки эстрадного вокала в Санкт-Петербурге
-------------------------------------------------------------------------------
                        You Can't Kill Terror - GWAR
-------------------------------------------------------------------------------
Tabbed by: Chris "|SpitFire|" Conner

Tuning: E-Flat


Intro:

|eb--------------------------------------------------|
|Bb--------------------------------------------------|
|Gb-----------------------------8--------------------|
|Db--7--------------------------8--------------------|
|Ab--7--------------------------6--------------------|
|Eb--5-----------------------------------------------|
|
|eb--------------------------------------------------|
|Bb--------------------------------------------------|
|Gb-----------------------------8---------10-10-8-8--|
|Db--7--7--7p5----7--7--7p5-----8---------10-10-8-8--|
|Ab--7---------7-------------7--6-666666-------------|
|Eb--5-----------------------------------------------|
                                  ......

|eb------------------------------------------|
|Bb------------------------------------------|
|Gb-------------------8----------------------|
|Db--7--7-5-7-8-7-5-7-8-7-7-9-9-10-10-12-12--|
|Ab--7----------------6-5-5-7-7--8--8-10-10--|
|Eb--5---------------------------------------|
|
|eb------------------------------------------|
|Bb------------------------------------------|
|Gb---------------------7-7-9-9-10-10-12-12--|
|Db--7--7-5-7-8-7-5-7---7-7-9-9-10-10-12-12--|
|Ab--7----------------8----------------------|
|Eb--5---------------------------------------|


Main Riff:
                                                        Alternation A
eb----------------------------------------------------|------------------------|
Bb----------------------------------------------------|------------------------|
Gb-----------------------------8---------10-10--------|------------------------|
Db--7--7--7p5----7--7--7p5-----8---------10-10-10-10--|--7--7p5----7--9--10-9--|
Ab--7---------7-------------7--6-666666---8--8-10-10--|---------7--------------|
Eb--5-------------------------------------------8--8--|------------------------|
                                 ......

eb------------------------------------------|
Bb------------------------------------------|
Gb---------------------7-7-9-9-10-10-12-12--|
Db--7--7-5-7-8-7-5-7---7-7-9-9-10-10-12-12--|
Ab--7----------------8----------------------|
Eb--5---------------------------------------|


Chorus:

eb----------------------------------------------|
Bb----------------------------------------------|
Gb-----------8---8-8-8--------------------------|
Db--7---10---8---8-8-8--7---10------8------8----|
Ab--7---10---6---6-6-6--7---10--7-8----7-8---7--|
Eb--5----8--------------5----8------------------|


eb----------------------------------------------|
Bb----------------------------------------------|
Gb-----------8---87-5---------------------------|
Db--7---10---8---87-5-8-7---10------8------8----|
Ab--7---10---6---65-3-8-7---10--7-8----7-8---7--|
Eb--5----8------------6-5----8------------------|


Break:

eb-----------------------------------------------------|---------------15---|
Bb-----------------------------------------------------|--------------------|
Gb-----------------------------------------------------|-------2~-----------|
Db--8-------------8------------8-----8-----8-----8--8--|--7~----------------|
Ab------0-0-0-0-0----0-0-0-0-0----0-----0-----0--------|--7~----------------|
Eb-----------------------------------------------------|--5~----------------|


Solo Rythm:

Part1
eb----------------------------|
Bb----------------------------|
Gb----------------------------|
Db--7--10--9--7-10-9--8---8---|
Ab--7--10--9--7-10-9--8---8---|
Eb--5---8--7--5--8-7--6\--6\--|x2

Part2
eb---------------------------------------------------------------------------|
Bb---------------------------------------------------------------------------|
Gb--5---7---10-10-10--5---5-8-7---6---5---7---10-10-10--5---5-8-7---6--------|
Db--5---7---10-10-10--5---5-8-7---6---5---7---10-10-10--5---5-8-7---6--------|
Ab--3---5----8--8--8--3---3-6-5---4---3---5----8--8--8--3---3-6-5---4--------|
Eb---------------------------------------------------------------------------|

Part3
eb------------------------------------|
Bb------------------------------------|
Gb--9-------10---7---9-------10---12--|
Db--9---7---10---7---9---7---10---12--|
Ab--7---7----8---5---7---7----8---10--|
Eb------5----------------5------------|x2


Solo Part 1:

eb-----0------------17---------------------|---------------------------|
Bb--10---10-13-17~-----17------------------|--12-h13p12---------12-----|
Gb------------------------17-16-14~--------|------------13--14---------|
Db-----------------------------------------|---------------------------|
Ab-----------------------------------------|---------------------------|
Eb-----------------------------------------|---------------------------|

                                                      release wah
eb--------------------12---------------------12---|  |-----------------|
Bb--10h12h13p12--10h12--12-10h12h13p12--10h12--12-|  |--10t-------12\--|
Gb------------------------------------------------|  |-----------------|
Db------------------------------------------------|  |-----------------|
Ab------------------------------------------------|  |-----------------|
Eb------------------------------------------------|x2|-----------------|


Solo Part 3:

eb--3------4-------3-------4---6------8-11-8-11-10-8-11-13---11-13-11-10--|
Bb-------------6-------------------8-8-8--8-8--8--8-8--8------------------|
Gb-----5---------------5--------------------------------------------------|
Db------------------------------------------------------------------------|
Ab------------------------------------------------------------------------|
Eb------------------------------------------------------------------------|

eb-----8-11-8-11-10-8-11-13---11-13-14-15--|
Bb--8-8-8--8-8--8--8-8--8------------------|
Gb-----------------------------------------|
Db-----------------------------------------|
Ab-----------------------------------------|
Eb-----------------------------------------|


Ending:

eb---------------------------------------------------------------------------|
Bb---------------------------------------------------------------------------|
Gb--9-9-------9-9--------7-7-9-9-10-10-12-12--7-7-9-9-10-10-12-12------------|
Db--9-9-------9-9--------7-7-9-9-10-10-12-12--7-7-9-9-10-10-12-12------------|
Ab--7-7-------7-7--------5-5-7-7--8--8-10-10--5-5-7-7--8--8-10-10------------|
Eb------00000-----00000------------------------------------------------------|

eb----------------------------------|
Bb----------------------------------|
Gb--7-7-9-9-10-10-12-12--7-12-12-7--|
Db--7-7-9-9-10-10-12-12--7-12-12-7--|
Ab--5-5-7-7--8--8-10-10--5-10-10-5--|
Eb----------------------------------|


Intro
Main Riffx2
Chorus
Main Riffx2 [with alternation]
Chorus
Break
Solo
Intro
Main Riffx2 [with alternation]
Chorus
Ending


                   
| /  slide up
| \  slide down
| h  hammer-on
| p  pull-off
| ~  vibrato
| +  harmonic
| x  Mute note
| t  Tremolo
===============================================================================
Добавлено: 12.03.2012
Другие материалы по этой песне:
  • Аккорды и текст

Страница создана 12.03.2012
http://primanota.ru/gwar/you-cant-kill-terror-chords.htm
Привет, Гость.
Предлагаем пройти революционный курс по гитаре.
Подарок от PrimaNota.Ru, забирай!