PrimaNota.ru - самый крупный в мире бесплатный архив песенных текстов, аккордов, табулатур и нот


Gwar - Womb With A View - текст песни, таба, видео

Регистрация Запомнить меня
Войти через:  Facebook Google Twitter Vk Yandex Mail.ru

Gwar - Womb With A View - текст песни, таба, видео

Печатать
Просмотров: 144
-------------------------------------------------------------------------------
                        Womb With A View - GWAR
-------------------------------------------------------------------------------
Tabbed by: Chris "|SpitFire|" Conner

Tuning: E-Flat

NOTICE! I used the "Live From Mt. Fuji" Version to tab the song, so there
might be some differences to the "War Party" Version.
      

Intro:

eb-------------------------------------|
Bb-------------------------------------|
Gb-------------------------------------|
Db-------------------------------------|
Ab-------------------------------------|
Eb--6-0-0-6-0-0-6-0-0-6-0-0-6--6--6----|            

Main Riff:

eb------------------------------------------------------|
Bb------------------------------------------------------|
Gb------------------------------------------------------|
Db-----------------------2------------------------------|
Ab--2--2-2-2-2-2-2---1-2---2---5--5-5-5-5-5-5---0---1-0-|
Eb--0--0-0-0-0-0-0-0---------0-3--3-3-3-3-3-3-3---3-----|x2
       . . . . . .          ^     . . . . . .
      Second Time Stop Here | and play one of the endings below

   Ending A          Ending B               Ending C
eb---------------|-----------------------|-----------------|
Bb---------------|-----------------------|-----------------|
Gb-10-10--7--7---|--10-10--12--7-10--9---|--5--5--5--5-7---|
Db-10-10--7--7---|--10-10--12--7-10--9---|--3--3--3--3-5---|
Ab--8--8--5--5---|---8--8--10--5--8--7---|-----------------|
Eb---------------|-----------------------|-----------------|

Here is when u play these endings:
[0:08]-[0:36] : A - B - C
[0:58]-[1:17] : B - C
[1:45]-[2:08] : A - B - C


Interlude:

eb---------------|--------------------------------------------------------------|
Bb---------------|--------------------------------------------------------------|
Gb---------------|--------------------------------------------------------------|
Db---------------|--------------------------------------------------------------|
Ab---------------|-2---8-8\7-8\7-8-2---8-8\7-8\7-8--3--3--3-6--5----------------|
Eb--6-6\5-6\5-6--|-00006-6\5-6\5-6-00006-6\5-6\5-6--1111111-4--3---6-6-6-6-0-6--|x2
                    ...            ^...              .. ..
  At this point, there is a pinch harmonic on the 7th fret of the Ab-String

Break:

eb---------------------------------------------------------------------------|
Bb---------------------------------------------------------------------------|
Gb---------------------------------------------------------------------------|
Db---------------------------------------------------------------------------|
Ab------------8--8-8------------8--8-8-----------8--8-8------------8--8-8----|
Eb-6-0-0-6-0--6--6-6-6-0-0-6-0--6--6-6--6-0-6-0--6--6-6-6-0-0-6-0--6--6-6----|x2


Guitar 1: [let ring]

eb---------------------------------------------------------------------------|
Bb---------------------------------------------------------------------------|
Gb---------------------------------------------------------------------------|
Db---------------------------------------------------------------------------|
Ab------------8--8-8------------8--8-8-----------8--8-8------------8--8-8----|
Eb-6-0-0-6-0--6--6-6-6-0-0-6-0--6--6-6--6-0-6-0--6--6-6-6-0-0-6-0--6--6-6----|x2

Guitar 2:

   These 3 notes have some wah-effect
eb-0~--------3~---------6~---------------------------------------------------|
Bb---------------------------------------------------------------------------|
Gb---------------------------------------------------------------------------|
Db---------------------------------------------------------------------------|
Ab---------------------------------------------------------------------------|
Eb--------------------------------------6-0-0-6-0-0-6-0-0-6-0-0-6--6--6------|


Second Solo:

eb-0~--0-3-3-2-3-5-3-2k--2-3-2-0-2---0k--0-0-2-0-3-0--12--12--12-12--14-14-14-12-10-12--|
Bb---------------------------------3----------------------------------------------------|

while Guitar 1 plays the main riff


Order:
Intro
Main Riff
Interlude
Main Riff
Break
Second Solo
Main Riff
Interlude
Intro

                   
| /  slide up
| \  slide down
| h  hammer-on
| p  pull-off
| ~  vibrato
| +  harmonic
| x  Mute note
| k  keep picking
===============================================================================

Добавлено: 18.04.2012
Другие материалы по этой песне:

Страница создана 09.03.2012
http://primanota.ru/gwar/womb-with-a-view-chords.htm
Привет, Гость.
Предлагаем пройти революционный курс по гитаре.
Подарок от PrimaNota.Ru, забирай!