PrimaNota.ru - самый крупный в мире бесплатный архив песенных текстов, аккордов, табулатур и нот


Gwar - What Would Brian Boitano Do - таба, видео

Регистрация Запомнить меня
Войти через:  Facebook Google Twitter Vk Yandex Mail.ru

Gwar - What Would Brian Boitano Do - таба, видео

Печатать
Просмотров: 82
e-----------------------------|-----------------------------|
B-----------------------------|-----------------------------|
G-----------------------6---8-|-----------------------------|
D---7---7-7---7---7-----6---8-|---7---7-7---7---7-----4---2-|\                  
A---7---7-7---7---7-----4---6-|---7---7-7---5---5-----4---2-| \      
E---5---5-5---5---5-----------|---5---5-5---5---5-----2---0-|  \     
                                                                \     
                                                                  X2    
e-----------------------------|-----------------------------|   /
B-----------------------------|-----------------------------|  /
G-----------------------6---8-|-----------------------------| /
D---7---7-7---7---7-----6---8-|---7---7-7---7---7-----7---7-|/
A---7---7-7---7---7-----4---6-|---7---7-7---7---7-----7---7-|
E---5---5-5---5---5-----------|---5---5-5---5---5-----5---5-|


e---------------------------|---------------------------|
B---------------------------|---------------------------|
G---------------------6---8-|---------------------------|
D---7-----------------6---8-|---7-----------------4---2-|
A---7-----------------4---6-|---7-----------------4---2-|
E---5-----------------------|---5-----------------2---0-|


e---------------------------|---------------------------|
B---------------------------|---------------------------|
G---------------------6---8-|---------------------------|
D---7-----------------6---8-|---7-----------------7---7-|
A---7-----------------4---6-|---7-----------------7---7-|
E---5-----------------------|---5-----------------5---5-|


e-----------------------------|-----------------------------|
B-----------------------------|-----------------------------|
G-----------------------6---8-|-----------------------------|
D---7---7-7---7---7-----6---8-|---7---7-7---7---7-----4---2-|                  
A---7---7-7---7---7-----4---6-|---7---7-7---5---5-----4---2-|      
E---5---5-5---5---5-----------|---5---5-5---5---5-----2---0-|      
                                                                    
                                                                    
e-----------------------------|-----------------------------|   
B-----------------------------|-----------------------------|  
G-----------------------6---8-|-----------------------------| 
D---7---7-7---7---7-----6---8-|---7---7-7---7---7-----7---7-|
A---7---7-7---7---7-----4---6-|---7---7-7---7---7-----7---7-|
E---5---5-5---5---5-----------|---5---5-5---5---5-----5---5-|



e----------------------------------|--------------------------------|
B----------------------------------|--------------------------------|
G----------------------------------|--------------------------------|
D--7-7-7-7-7-7-7-7-4-4-4-4-2-2-2-2-|--7-7-7-7-7-7-7-7-2-2-2-4-7-7-7-| 
A--7-7-7-7-7-7-7-7-4-4-4-4-2-2-2-2-|--7-7-7-7-7-7-7-7-2-2-2-4-7-7-7-|
E--5-5-5-5-5-5-5-5-2-2-2-2-0-0-0-0-|--5-5-5-5-5-5-5-5-0-0-0-2-5-5-5-|



e----------------------------------|--------------------------------|
B----------------------------------|--------------------------------|
G--6-6-6-6-6-6-6-6-6-6-6-6-6-6-6-6-|--7-7-7-7-7-7-7-7-4-4-4-4-4-4-4-|
D--6-6-6-6-6-6-6-6-6-6-6-6-6-6-6-6-|--7-7-7-7-7-7-7-7-4-4-4-4-4-4-4-| 
A--4-4-4-4-4-4-4-4-4-4-4-4-4-4-4-4-|--5-5-5-5-5-5-5-5-2-2-2-2-2-2-2-|
E----------------------------------|--------------------------------|


e-----------------------------|-----------------------------|
B-----------------------------|-----------------------------|
G-----------------------6---8-|-----------------------------|
D---7---7-7---7---7-----6---8-|---7---7-7---7---7-----4---2-|                  
A---7---7-7---7---7-----4---6-|---7---7-7---5---5-----4---2-|      
E---5---5-5---5---5-----------|---5---5-5---5---5-----2---0-|      
                                                                    
                                                                    
e-----------------------------|-----------------------------|   
B-----------------------------|-----------------------------|  
G-----------------------6---8-|-----------------------------| 
D---7---7-7---7---7-----6---8-|---7---7-7---7---7-----7---7-|
A---7---7-7---7---7-----4---6-|---7---7-7---7---7-----7---7-|
E---5---5-5---5---5-----------|---5---5-5---5---5-----5---5-|


e---------------------------|---------------------------|
B---------------------------|---------------------------|
G---------------------6---8-|---------------------------|
D---7-----------------6---8-|---7-----------------4---2-|
A---7-----------------4---6-|---7-----------------4---2-|
E---5-----------------------|---5-----------------2---0-|


e---------------------------|---------------------------|
B---------------------------|---------------------------|
G---------------------6---8-|---------------------------|
D---7-----------------6---8-|---7-----------------7---7-|
A---7-----------------4---6-|---7-----------------7---7-|
E---5-----------------------|---5-----------------5---5-|


e-----------------------------|-----------------------------|
B-----------------------------|-----------------------------|
G-----------------------6---8-|-----------------------------|
D---7---7-7---7---7-----6---8-|---7---7-7---7---7-----4---2-|                  
A---7---7-7---7---7-----4---6-|---7---7-7---5---5-----4---2-|      
E---5---5-5---5---5-----------|---5---5-5---5---5-----2---0-|      
                                                                    
                                                                    
e-----------------------------|-----------------------------|   
B-----------------------------|-----------------------------|  
G-----------------------6---8-|-----------------------------| 
D---7---7-7---7---7-----6---8-|---7---7-7---7---7-----7---7-|
A---7---7-7---7---7-----4---6-|---7---7-7---7---7-----7---7-|
E---5---5-5---5---5-----------|---5---5-5---5---5-----5---5-|


e----------------------------------|--------------------------------|
B----------------------------------|--------------------------------|
G----------------------------------|--------------------------------|
D--7-7-7-7-7-7-7-7-4-4-4-4-2-2-2-2-|--7-7-7-7-7-7-7-7-2-2-2-4-7-7-7-| 
A--7-7-7-7-7-7-7-7-4-4-4-4-2-2-2-2-|--7-7-7-7-7-7-7-7-2-2-2-4-7-7-7-|
E--5-5-5-5-5-5-5-5-2-2-2-2-0-0-0-0-|--5-5-5-5-5-5-5-5-0-0-0-2-5-5-5-|



e----------------------------------|--------------------------------|
B----------------------------------|--------------------------------|
G--6-6-6-6-6-6-6-6-4-4-4-4-4-4-4-4-|--7-7-7-7-7-7-7-7--9--9--10--10-|
D--6-6-6-6-6-6-6-6-4-4-4-4-4-4-4-4-|--7-7-7-7-7-7-7-7--9--9--10--10-| 
A--4-4-4-4-4-4-4-4-2-2-2-2-2-2-2-2-|--5-5-5-5-5-5-5-5--7--7---8---8-|
E----------------------------------|--------------------------------|


e---------------------------|---------------------------|
B---------------------------|---------------------------|
G--5---5-5----5---5-5-------|---------------------------|
D--5---5-5----5---5-5-------|---------------------------|
A--3---3-3----3---3-3-------|---------------------------|
E---------------------------|---------------------------|


AND YOUR GONNA HAVE TO FIGURE OUT THE REST. YOU SHOULD HAVE ENOUGH COMMON SENCE.

          JESSE LEE PORTER
Добавлено: 12.04.2012
Другие материалы по этой песне:
  • Аккорды и текст

Страница создана 12.04.2012
http://primanota.ru/gwar/what-would-brian-boitano-do-chords.htm
Привет, Гость.
Предлагаем пройти революционный курс по гитаре.
Подарок от PrimaNota.Ru, забирай!