PrimaNota.ru - самый крупный в мире бесплатный архив песенных текстов, аккордов, табулатур и нот


Gwar - War Party - текст песни, таба, видео

Регистрация Запомнить меня
Войти через:  Facebook Google Twitter Vk Yandex Mail.ru

Gwar - War Party - текст песни, таба, видео

Печатать
Просмотров: 105
-------------------------------------------------------------------------------
                             WAR PARTY - Gwar
-------------------------------------------------------------------------------

Tabbed by: Tyler Greig

Email: gtheleadguitarist@hotmail.com

| /  slide up
| \  slide down
| h  hammer-on
| p  pull-off
| ~  vibrato
| *  harmonic
| x  Mute note
| b  bend
| v  vibrato
| ~  let ring

Tuning: half step down (Eb Ab Db Gb Bb Eb)

 Here 'tis. I'm going to see these guys this week, I hear they put on a
wicked live show. I was surprised to find there were no tabs for this 
online, so I figured I'd do it myself. I don't promise all the parts 
where I have both guitars transcribed will be in sync with eachother,
but all the parts are there. 

INTRO
  Guitar 1 (with wah)
e|----------------------------------------------------------------|
B|----------------------------------------------------------------|
G|-11~----------11-11\-----------------11~------------(pickscrape)|
D|----------------------------------------------------------------|
A|----------------------------------------------------------------|
E|----------------------------------------------------------------|
 |Guitar 2                                                        |
e|----------------------------------------------------------------|
B|----------------------------------------------------------------|
G|----------------------------------------------------------------|
D|----------77---------------1010-9-------------77----------------|
A|-9-999999-55-7-7-/9-999999--8-8-7--7-9-999999-55-7-5-3--5~-8~---|
E|-7-777777----5-5-/7-777777---------5-7-777777----5-3-1--3~-6~---|
                                                       ^ drums enter here

  Guitar 1 (with wah)
e|----------------------------------------------------------------|
B|----------------------------------------------------------------|
G|-11111111\9----11111111\9----------11111111\9-------11--(scrape)|
D|----------------------------------------------------------------|
A|----------------------------------------------------------------|
E|----------------------------------------------------------------|
 |Guitar 2                                                        |
e|----------------------------------------------------------------|
B|----------------------------------------------------------------|
G|----------------------------------------------------------------|
D|----------77---------------1010-9-------------77----------------|
A|-9-999999-55-7-7-/9-999999--8-8-7--7-9-999999-55-7-5-3--5~-8~---|
E|-7-777777----5-5-/7-777777---------5-7-777777----5-3-1--3~-6~---|


VERSE
e|----------------------------------------------------------------|
B|----------------------------------------------------------------|
G|----------------------------------------------------------------|
D|----------77---------------1010-9-------------77----------------|
A|-9-999999-55-7-7-/9-999999--8-8-7--7-9-999999-55-7-5-3--5~-8~---|
E|-7-777777----5-5-/7-777777---------5-7-777777----5-3-1--3~-6~---| x2
PM   ......           ......             ......


CHORUS (Come join the war party...)
  Guitar 1
e|-/7---------------------|  |-/7-----------------|
B|----7--10-7-------------|  |----7--10-7---------|
G|-------------11-7--9p7--|  |--------------------|
D|----------------------9-|  |--------------------|
A|------------------------|  |------------5-7-5-7-|
E|------------------------|x3|------------3-5-3-5-| Play whole thing 2x

 |Guitar 2                                                                   |
e|---------------------------------------------------------------------------|
B|---------------------------------------------------------------------------|
G|---------------------------------------------------------------------------|
D|---------------------------------------------------------------------------|
A|-9-9-9-9-9-9-9-9--9-9-9-9-9-9-9-9--7-7-7-7-7-7-7-7--7-7-7-7--5-7-5-7-/9----|
E|-7-7-7-7-7-7-7-7--6-6-6-6-6-6-6-6--5-5-5-5-5-5-5-5--4-4-4-4--3-5-3-5-/7----| x2


VERSE
CHORUS

BRIDGE (I'm really hoping the way I have this set up isn't too confusing...e-mail
me if you have any problems.)
e|-------------------------------|        |-------------------------------|
B|-------------------------------|        |-------------------------------|
G|-------------------------------|        |-------------------------------| 
D|-------------------------------|        |-------------------------------|
A|-9-8-7-8-7-6-7-6-5-6-5-4-5-4-3-|        |-------------------------------|
E|-7-6-5-6-5-4-5-4-3-4-3-2-3-2-1-|x3 then |-7-6-5-6-5-4-5-4-3-4-3-2-3-2-1-|
PM . . . . . . . . . . . . . .  

BRIDGE PART 2
e|-------------------------------------------------------------------------------------------------|
B|-------------------------------------------------------------------------------------------------|
G|-----------------------------------------------3---------------------------------------------1---|
D|-----3~----------------------3~-----5-4-----5-------3-----------------------3~-----3-2-----3-----|
A|-2-2-1~------------------2-2-1~-2-2-----2-2-----2-2-1~------------------2-2-1~-2-2-----2-2-------|
E|-0-0----0-1/3\1-0-1/3\1--0-0----0-0-----0-0-----0-0----0-1/3\1-0-1/3\1--0-0----0-0-----0-0-------|x2
PM        .       .               . .     . .            .       .               . .     . .

(The bit without vocals)
e|------------------------------------------------------------------------------|
B|------------------------------------------------------------------------------|
G|-------------------------------3------------------------------1---------------|
D|-----3-2-------------5-4-----5-------5-4------------3-2-----3-------3-2-------|
A|------------------------------------------------------------------------------|
E|-0-1-----4-3v~---0-1-----0-1-----0-1-----6-5v~--0-1-----0-1-----0-1-----4-3v~-|
PM . .             . .     . .     . .            . .     . .     . .   

e|-----------------------------|
B|-----------------------------|
G|---------------3-------------|
D|-----5-4-----5---------------|
A|-----------------------5-4-3-|
E|-0-1-----0-1-----0-1-3-3-2-1-|
PM . .     . .     . . .

(Vocals kick back in)
e|-------------------------------------------------------------------------------------------------|
B|-------------------------------------------------------------------------------------------------|
G|-----------------------------------------------1---------------------------------------------3---|
D|-----3~----------------------3~-----3-2-----3-------3-----------------------3~-----5-4-----5-----|
A|-2-2-1~------------------2-2-1~-2-2-----2-2-----2-2-1~------------------2-2-1~-2-2-----2-2-------|
E|-0-0----0-1/3\1-0-1/3\1--0-0----0-0-----0-0-----0-0----0-1/3\1-0-1/3\1--0-0----0-0-----0-0-------|x2
PM        .       .               . .     . .            .       .               . .     . .
                                                   On the repeat, only play up to here ^
                                                   Then play this next part:

e|----------------------|
B|----------------------|
G|----------------------|
D|----------------------|
A|-5-4-3--9-8-7--5-4-3--|
E|-3-2-1--7-6-5--3-2-1--|


CHORUS x2


OUTRO
e|------------|
B|------------|
G|------------|
D|-77---------|
A|-55-7-7-9\--|
E|----5-5-7\--|



============================================================================
Добавлено: 24.04.2012
Другие материалы по этой песне:
  • Аккорды и текст

Страница создана 24.04.2012
http://primanota.ru/gwar/war-party-chords.htm
Привет, Гость.
Предлагаем пройти революционный курс по гитаре.
Подарок от PrimaNota.Ru, забирай!