PrimaNota.ru - самый крупный в мире бесплатный архив песенных текстов, аккордов, табулатур и нот


Gwar - War Is All We Know - текст песни, таба, видео

Регистрация Запомнить меня
Войти через:  Facebook Google Twitter Vk Yandex Mail.ru

Gwar - War Is All We Know - текст песни, таба, видео

Печатать
Просмотров: 129
-------------------------------------------------------------------------------
                       War Is All We Know - GWAR
-------------------------------------------------------------------------------
Tabbed by: Chris "|SpitFire|" Conner

Tuning: E-Flat

eb----------------------|
Bb----------------------|
Gb----------------------|
Db----------------------|
Ab-2---3---4-5-6-7-8-9--|
Eb-0---1---2-3-4-5-6-7--|
   .       . . . . . .  

   They came from the sun....
...They say war is a last...
eb--------------------------|--------------------------|
Bb--------------------------|--------------------------|
Gb--------------------------|--------------------------|
Db--------------------------|--------------------------|
Ab-2---2222222---5h8p5--5---|-2---2222222---5h8p5--5-8-|
Eb-0---0000000--------6---3-|-0---0000000--------6-----|
       .......                    .......

                          ...They marshaled their forces...
                          ...suits me better to slay...
eb--------------------------|----------------------------|
Bb--------------------------|----------------------------|
Gb--------------------------|----------------------------|
Db--------------------------|----------------------------|
Ab-2---2222222---5h8p5--5---|-3---3333---3336---6666-5-3-|
Eb-0---0000000--------6---3-|-1---1111---1114---4444-3-1-|
       .......                    ...    ...    ...

...So it's come to this...
...All that I touch...
eb--------------------------|----------------------------|
Bb--------------------------|----------------------------|
Gb--------------------------|----------------------------|
Db---------------7h10p7--7--|---------------7h10p7--7-10-|
Ab-2---2222222---------8---6|-2---2222222---------8------|
Eb-0---0000000--------------|-0---0000000----------------|
       .......                    .......

                              ...Comes to slay....
                              ...Only an odor...
eb--------------------------|----------------------------|
Bb--------------------------|----------------------------|
Gb--------------------------|----------------------------|
Db--------------------------|----------------------------|
Ab-2---2222222---5h8p5--5---|-3---3333---3336---6666-5-3-|
Eb-0---0000000--------6---3-|-1---1111---1114---4444-3-1-|
       .......                    ...    ...    ...

   ...WAR...
eb--------------|
Bb--------------|
Gb------9--5--8-|
Db-2----9--5--8-|
Ab-2----7--3--6-|
Eb-0------------|


...Son kill the father...
...For I don't have...
...Burn the bitter butter...
...My walls they are melting...
eb-------------------------------|-------------------------------|
Bb-------------------------------|-------------------------------|
Gb-------------------------------|-------------------------------|
Db-------------------------------|-------------------------------|
Ab-----------------------------2*|-----------------------------3*|
Eb-000-100-000-300-000-100-000---|-000-100-000-300-000-100-000---|
   [3] [3] [3] [3] [3] [3] [3]     [3] [3] [3] [3] [3] [3] [3]

                                  ...Take me death...
                                  ...First you must suffer...
                                  ...Fetch me my enchanted...
                                  ...To arms is the only cry...
eb-------------------------------|----------------------------|
Bb-------------------------------|----------------------------|
Gb-------------------------------|----------------------------|
Db-------------------------------|----------------------------|
Ab-----------------------------2*|-3---3333---3336---6666-5-3-|
Eb-000-100-000-300-000-100-000---|-1---1111---1114---4444-3-1-|
   [3] [3] [3] [3] [3] [3] [3]         ...    ...    ...



...Hatred of all things alive...
eb------------------------|------------------------|
Bb------------------------|------------------------|
Gb------------------------|------------------------|
Db------------------------|------------------------|
Ab-2---222-222-222--14*\--|-3--3333-3336-5-6-8-6-3-|
Eb-0---000-000-000--------|-1--1111-1114-3-4-6-4-1-|
       [3] [3] [3]             ...  .... . .   . .

...Humans must feast on their...
eb------------------------|------------------------|-------------|
Bb------------------------|------------------------|-------------|
Gb------------------------|------------------------|-------------|
Db------------------------|------------------------|-------------|
Ab-2---222-222-222--14*\--|-3--3333-3336-5-6-8-6-5-|-3-4-5-6-7-8-|
Eb-0---000-000-000--------|-1--1111-1114-3-4-6-4-3-|-1-2-3-4-5-6-|
       [3] [3] [3]             ...  .... . .   . .   . . . . .


eb------------------------------------|--------------------------------------|
Bb------------------------------------|--------------------------------------|
Gb-----9-5-8----9\-----9-5-8----4-10\-|-----9-5-8----9\-----9-5-8------------|
Db-2---9-5-8----9\-2---9-5-8----4-10\-|-2---9-5-8----9\-2---9-5-8------------|
Ab-2---7-3-6----7\-2---7-3-6----2--8\-|-2---7-3-6----7\-2---7-3-6--PICKSCRAPE|
Eb-0---------------0------------------|-0---------------0--------------------|


...Hatred is a seed... (Second time stop | here)
...And raised on high...                 v
eb-----------------------------|--------------------|
Bb:----------------------------|-------------------:|
Gb-----9-5-8--101010-101010-9--|-----9-5-8----------|
Db-2---9-5-8--101010-101010-9--|-2---9-5-8----------|
Ab:2---7-3-6---8-8-8--8-8-8-7--|-2---7-3-6----2/20-:|
Eb-0---------------------------|-0------------------|
               . .    . .                     ===>

...Alone...
eb----------------------|
Bb----------------------|
Gb----------------------|
Db-2--------------------|
Ab-2---------PICKSCRAPE-|
Eb-0--------------------|

...They say war...
...But excuse me...
eb-----------------------------------------|
Bb:----------------------------------------|
Gb-9999-9999-9999-9999-8888-8888-8888-8888-|
Db-9999-9999-9999-9999-8888-8888-8888-8888-|
Ab:7777-7777-7777-7777-6666-6666-6666-6666-|
Eb-0000-0000-0000-0000---------------------|

...No matter how...    _____________________ _____________________________
...He tries to...     / 1                   / 2
eb-----------------------------------------|-------------------------------|
Bb----------------------------------------:|-------------------------------|
Gb-7777-7777-7777-7777-5555-5555-----------|-------------------------------|
Db-7777-7777-7777-7777-5555-5555-5—-5--554-|-------------------------------|
Ab-5555-5555-5555-5555-3333-3333-5--5--554:|-----------------------3-3-3-3-|
Eb-------------------------------3--3--332-|-3p0h3/6-p0h3p0h3/6-p0-1-1-1-1-|
                                                                   . . . .

Solo:
eb-0---0------------------------------------------------------|
Bb-------3p0-0--0---------------------------------------------|
Gb---------------2--------------------------------------------|
Db------------------4---5-4-5-8----7-8-7-5-7-5-4-5-7~-5~------|
Ab-------------------------------------------------------2/19-|
Eb------------------------------------------------------------|
                                                         ===>
eb--------------------------------------------------|
Bb--------------------------------------------------|
Gb--------13----------16----------13----------16----|
Db--14-15----15-14-15----15-14-15----15-14-15----15-|
Ab--------------------------------------------------|
Eb--------------------------------------------------|

eb---------------------------------------------------------|
Bb---------------------------------------------------------|
Gb---------------------------------------------------------|
Db-----------13----16----13----16----13----16----13----14~-|
Ab--14-15-14----14----14----14----14----14----14----14-----|
Eb---------------------------------------------------------|
             ======>======>======>======>======>======>

eb--------------------------------------------------|
Bb--------------------------------------------------|
Gb--13-14-13h14p13---13-----------------------------|
Db----------------14----15-14-12-14\----------------|
Ab---------------------------------\2~--------------|
Eb--------------------------------------------------|
                                 ===>
                         _______________________
                        / 1,2      / 3
eb---------------------------------|----------------------|
Bb:-------------------------------:|----------------------|
Gb---------------------------------|----------------------|
Db---------------------------------|----------------------|
Ab:-----------------------3-3-3-3-:|-2---3---4-5-6-7-8-9--|
Eb--3p0h3/6-p0h3p0h3/6-p0-1-1-1-1--|-0---1---2-3-4-5-6-7--|
                          . . . .    .       . . . . . .

| .   Palm Mute
| /   slide up
| \   slide down
| h   hammer-on
| p   pull-off
| ~   vibrato
| ==> Tremolo Picking
| : : Repeat
| [3] Triplets (I didn't mark them all, these are just a few)
===============================================================================
Добавлено: 04.03.2012
Другие материалы по этой песне:
  • Аккорды и текст

Страница создана 04.03.2012
http://primanota.ru/gwar/war-is-all-we-know-chords.htm
Привет, Гость.
Предлагаем пройти революционный курс по гитаре.
Подарок от PrimaNota.Ru, забирай!