PrimaNota.ru - самый крупный в мире бесплатный архив песенных текстов, аккордов, табулатур и нот


Gwar - Surf Of Syn - текст песни, таба, видео

Регистрация Запомнить меня
Войти через:  Facebook Google Twitter Vk Yandex Mail.ru

Gwar - Surf Of Syn - текст песни, таба, видео

Печатать
Просмотров: 97
From the album RagNaRok. This is...about a third of "Surf of Syn".
I'm not very good at solo-ing, and my guitar only has 21 frets, so
those were both reasons I've only got a third of the song done.
You should know the rhythm of the song if you're looking at this tab. 

All strings tuned half-step down.

INTRO
|----------------------|
|----------------------|
|----------------------|
|------------------10--|
|--7-10-9-8-7-10-9-----|
|----------------------| x4

INTRO HARMONY (After the above is repeated twice)
|-------------------------|
|-------------------------|
|---------------------12--|
|--9-12-11-10-9-12-11-----|
|-------------------------|
|-------------------------| x2

INTRO SOLO
|--------12-14-15-17-19-17~--19-12-14-------|
|--12~~-------------------------------12~~--|
|-------------------------------------------|
|-------------------------------------------|
|-------------------------------------------|
|-------------------------------------------|

|--12-14-15-17-19-20-19-17-19-20-22-20-19-20-19-17-19-17-19-17-19--|
|------------------------------------------------------------------|
|------------------------------------------------------------------|
|------------------------------------------------------------------|
|------------------------------------------------------------------|
|------------------------------------------------------------------|

|--15-17-15-17-15-17p15-15--15-19-17-15-19-17-15-17-12~~--|
|---------------------------------------------------------|
|---------------------------------------------------------|
|---------------------------------------------------------|
|---------------------------------------------------------|
|---------------------------------------------------------|


VERSE
|-----22-19-19-----22-19-19--|
|--19-----------19-----------|
|----------------------------|
|----------------------------|
|----------------------------|
|----------------------------| x8

VERSE HARMONY
|-----19-----------19--------|
|--15----19-19--15----19-19--|
|----------------------------|
|----------------------------|
|----------------------------|
|----------------------------| x8


SOLO 1
|Rhythm
|------------------------------------------------------|
|------------------------------------------------------|
|------------------------------------------------------|
|--7--7-7--7/9/10-10-10-10--9/10-10-10--9/10-10-10-10--|
|--7--7-7--7/9/10-10-10-10--9/10-10-10--9/10-10-10-10--|
|--5--5-5--5/7/-8--8--8--8--7/-8--8--8--7/-8--8--8--8--| x4


SOLO INTERLUDE
|--12-12-----------------------------------------|
|--------13-15-----------------------------------|
|--------------12-14-----------------------------|
|--------------------12-14-12-14~--x-x-14p12-----|
|--------------------------------------------14--|
|------------------------------------------------|

|--12-12------------------------------|
|--------13-15------------------------|
|--------------12-14------------------|
|--------------------12-14-12-b14~~~--|
|-------------------------------------|
|-------------------------------------| x2


SOLO 2 (Part I)
|--12-12-11-11-10-10-9-9-9--12-12-12-12-12-11-11-10-10-9~~-|
|----------------------------------------------------------|
|----------------------------------------------------------|
|----------------------------------------------------------|
|----------------------------------------------------------|
|----------------------------------------------------------|

|--12-11-10h11p10-9-10-9-8/9----------------------|
|-------------------------------------------------|
|----------------------------9-9-9-9-8-8-7-7-6~~--|
|-------------------------------------------------|
|-------------------------------------------------|
|-------------------------------------------------|


Legend
========
h    | Hammer-On
p    | Pull-Off
b    | Bend Note
~    | Hold Note
x    | Mute Note
/    | Slide Up


That's all I've got for now. It might not be perfect, but it's better
than nothing. Feedback is welcomed.

-- DH
=============================================================
Добавлено: 17.07.2012
Другие материалы по этой песне:
  • Аккорды и текст

Страница создана 21.02.2012
http://primanota.ru/gwar/surf-of-syn-chords.htm
Привет, Гость.
Предлагаем пройти революционный курс по гитаре.
Подарок от PrimaNota.Ru, забирай!