PrimaNota.ru - самый крупный в мире бесплатный архив песенных текстов, аккордов, табулатур и нот


Gwar - Stripper Christmas Summer Weekend - таба, видео

Регистрация Запомнить меня
Войти через:  Facebook Google Twitter Vk Yandex Mail.ru

Gwar - Stripper Christmas Summer Weekend - таба, видео

Печатать
Просмотров: 105
Merry Christmas! Here's a gift from me: A tab for the only 
Christmas song GWAR has ever done. And they released it on 
festive red and green vinyls.

All strings tuned half-step down.


INTRO
|-------------------------------------------------------|
|-------------------------------------------------------|
|-------------------------------------------------------|
|--3--5-5-3-5-3----3-5-3-5-3----8\3-3--3----8\3-3--3-5--|
|--3--5-5-3-5-3----3-5-3-5-3----8\3-3--3----8\3-3--3-5--|
|--1--3-3-1-3-1----1-3-1-3-1----6\1-1--1----6\1-1--1-3--| x4


VERSE
|--------------------------------------------------------|
|--------------------------------------------------------|
|--------------------------------------------------------|
|--3--5-5-3-5-3-x-x-x-3-5-3-5-3---8\3-3--3---8\3-3--3-5--|
|--3--5-5-3-5-3-x-x-x-3-5-3-5-3---8\3-3--3---8\3-3--3-5--|
|--1--3-3-1-3-1-x-x-x-1-3-1-3-1---6\1-1--1---6\1-1--1-3--| x4

|Lead
|--------------------------------------------------------------------------|
|--------------------------------------------------------------------------|
|--13--13-13--13-13--12--12-12--12-12--11--11-11--11-11--10--10-10--10-10--|
|---x---x--x---x--x---x---x--x---x--x---x---x--x---x--x---x---x--x---x--x--|
|--11--11-11--11-11--10--10-10--10-10---9---9--9---9--9---8---8--8---8--8--|
|--------------------------------------------------------------------------|
|
|Rhythm
|------------------------------------------------------|
|------------------------------------------------------|
|------------------------------------------------------|
|--5--5-5--5-5--5--5-5--5-5--3--3-3--3-3--2--2-2--2-2--|
|--5--5-5--5-5--5--5-5--5-5--3--3-3--3-3--2--2-2--2-2--|
|--3--3-3--3-3--2--2-2--2-2--1--1-1--1-1--0--0-0--0-0--|

|-----------------------------------------------------|
|-----------------------------------------------------|
|-----------------------------------------------------|
|--3--5-5-3-5-3----3-5-3-5-3---8\3-3--3---8\3-3--3-5--|
|--3--5-5-3-5-3----3-5-3-5-3---8\3-3--3---8\3-3--3-5--|
|--1--3-3-1-3-1----1-3-1-3-1---6\1-1--1---6\1-1--1-3--| x2

|--------------------------------------------------------|
|--------------------------------------------------------|
|--------------------------------------------------------|
|--3--5-5-3-5-3-x-x-x-3-5-3-5-3---8\3-3--3---8\3-3--3-5--|
|--3--5-5-3-5-3-x-x-x-3-5-3-5-3---8\3-3--3---8\3-3--3-5--|
|--1--3-3-1-3-1-x-x-x-1-3-1-3-1---6\1-1--1---6\1-1--1-3--| x2


CHORUS
|------------------------------------------------------|
|------------------------------------------------------|
|------------------------------------------------------|
|--5--5-5--5-5--5--5-5--5-5--3--3-3--3-3--2--2-2--2-2--|
|--5--5-5--5-5--5--5-5--5-5--3--3-3--3-3--2--2-2--2-2--|
|--3--3-3--3-3--2--2-2--2-2--1--1-1--1-1--0--0-0--0-0--| x4


SOLO
|Rhythm
|------------------------------------------------|
|------------------------------------------------|
|------------------------------------------------|
|--3--5-5-3-5-3-------8\3-5-3-5-3---8\3-5-3-5-3--|
|--3--5-5-3-5-3-------8\3-5-3-5-3---8\3-5-3-5-3--|
|--1--3-3-1-3-1-------6\1-3-1-3-1---6\1-3-1-3-1--| x2

|----------------------------------------------------------------|
|----------------------------------------------------------------|
|----------------------------------------------------------------|
|--3--5-5-3-5-3--5-5-5-5-5-5-5-5-5-5--8\3-5-3-5-3---8\3-5-3-5-3--|
|--3--5-5-3-5-3--5-5-5-5-5-5-5-5-5-5--8\3-5-3-5-3---8\3-5-3-5-3--|
|--1--3-3-1-3-1--3-3-3-3-3-3-3-3-3-3--6\1-3-1-3-1---6\1-3-1-3-1--| x2
PM               . . . . . . . . . .


Repeat    CHORUS


LAST VERSE
|--------------------------------------|
|--------------------------------------|
|--------------------------------------|
|--3--5-5-3-5-3------------------------|
|--3--5-5-3-5-3------------------------|
|--1--3-3-1-3-1------------------------| x4

|--------------------------------------|
|--------------------------------------|
|--------------------------------------|
|--3--5-5-3-5-3-------8\3-3~---8\3-3~--|
|--3--5-5-3-5-3-------8\3-3~---8\3-3~--|
|--1--3-3-1-3-1-------6\1-1~---6\1-1~--|

|-----------------------------------------------------------------------|
|-----------------------------------------------------------------------|
|------------------------------------3-3--------------------------------|
|--3--5-5-3-5-3--5-5-5-5-5-5-5-5-5-5-3-3-3-3-3-3-3-3-3-3-3-3-3-3-3-3-3--|
|--3--5-5-3-5-3--5-5-5-5-5-5-5-5-5-5-1-1-3-3-3-3-3-3-3-3-3-3-3-3-3-3-3--|
|--1--3-3-1-3-1--3-3-3-3-3-3-3-3-3-3-----1-1-1-1-1-1-1-1-1-1-1-1-1-1-1--|
PM               . . . . . . . . . . . . . . . . . . . . . . . . . . .


Repeat    CHORUS x2


ENDING
|----------------|
|----------------|
|----------------|
|--3--5-5-3-5-5--|
|--3--5-5-3-5-5--|
|--1--3-3-1-3-3--|



Legend
========
\    | Slide Down
X    | Mute Note
PM   | Palm Muting
~    | Hold Note


That's it. It may not be perfect, but they never released 
a perfectly clear quality recording of it, and some of
the riffs are hard to pick out.
Feedback is welcomed.

-- DH
==============================================
Добавлено: 03.03.2012
Другие материалы по этой песне:
  • Аккорды и текст

Страница создана 03.03.2012
http://primanota.ru/gwar/stripper-christmas-summer-weekend-chords.htm
Привет, Гость.
Предлагаем пройти революционный курс по гитаре.
Подарок от PrimaNota.Ru, забирай!