PrimaNota.ru - самый крупный в мире бесплатный архив песенных текстов, аккордов, табулатур и нот


Gwar - Sfw - таба, видео

Регистрация Запомнить меня
Войти через:  Facebook Google Twitter Vk Yandex Mail.ru

Gwar - Sfw - таба, видео

Печатать
Просмотров: 117
This is the song GWAR did for the movie of the same name. 
It appears in the movie about an hour in.

Intro (After the drums)
|-----------------------|
|-----------------------|
|-----------------------|
|--8-8-7-7-5-5----------|
|--8-8-7-7-5-5----------|
|--6-6-5-5-3-3-0-0-0-0--|
PM             . . . .

Pre-Verse
|----------------------------------------------------------|
|----------------------------------------------------------|
|----------------------------------------------------------|
|--5--------------5-----6/7-6/7-5--------------5--8-8-8-8--|
|--5--------------5-----6/7-6/7-5--------------5--8-8-8-8--|
|--3-0-0-00000000-3-0-0-4/5-4/5-3-0-0-00000000-3--6-6-6-6--|
PM   . . ........   . .           . . ........

Verse
|-----------------------------------|
|-----------------------------------|
|-----------------------------------|
|---------------5--------6/7-6/7-5--|
|---------------5--------6/7-6/7-5--|
|--0-0-0-0-0000-3--0-0-0-4/5-4/5-3--| x3
PM . . . . ....    . . .

|---------------------------|
|---------------------------|
|---------------------------|
|---------------5--8-8-8-8--|
|---------------5--8-8-8-8--|
|--0-0-0-0-0000-3--6-6-6-6--|
PM . . . . ....

Verse Part 2
|------------------------|
|------------------------|
|------------------------|
|----------8----8-8-8-8--|
|----------8----8-8-8-8--|
|--0-0-0-0-6--0-6-6-6-6--| x7
PM . . . .    . . . . .
                ^
      On the 7th time, play the intro
      starting with this chord.

Repeat Verse

So Fuckin' What 
(Cut off the last 4 chords of the verse and replace them with this)
|-----------------|
|-----------------|
|-----------------|
|--8-8-8---8-8-8--|
|--8-8-8---8-8-8--|
|--6-6-6---6-6-6--|

Breakdown
|---------------------------------------|
|---------------------------------------|
|--7-------10-10-9-10--7----------------|
|--7-9-9-9-10-10-9-10--7-9-9-9-7-7-7/8--|
|--5-9-9-9--8--8-7--8--5-9-9-9-7-7-7/8--|
|----7-7-7---------------7-7-7-5-5-5/6--| x8

Return
|----------------------------------------------------------|
|----------------------------------------------------------|
|------------10-10-9-9-7-7-5-5-5-5-------------------------|
|--7/8--7/8--10-10-9-9-7-7-5-5-5-5--8-8-7-7-5-5---------5--|
|--7/8--7/8---8--8-7-7-5-5-3-3-3-3--8-8-7-7-5-5---------5--|
|--5/6--5/6-------------------------6-6-5-5-3-3-0-0-0-0-3--|
PM                                              . . . .

Repeat Verse
Repeat Verse Part 2    x7

Ending
(Cut off the last 4 chords of Verse Part 2 and replace it with this)
|-----------------------|      |-----|
|-----------------------|      |-----|
|-----------------------|      |-----|
|--8-8-7-7-5-5----------|      |--5--|
|--8-8-7-7-5-5----------|      |--5--|
|--6-6-5-5-3-3-0-0-0-0--|  x3  |--3--|
PM             . . . .

Legend
=======
PM  | Palm Muting
/   | Slide Up


There it is. An awesome song from an awesome movie. Check them both out.
Feedback is welcomed.

-DH
====================================
Добавлено: 06.06.2012
Другие материалы по этой песне:
  • Аккорды и текст

Страница создана 06.06.2012
http://primanota.ru/gwar/sfw-chords.htm
Привет, Гость.
Предлагаем пройти революционный курс по гитаре.
Подарок от PrimaNota.Ru, забирай!