PrimaNota.ru - самый крупный в мире бесплатный архив песенных текстов, аккордов, табулатур и нот


Gwar - Rock And Roll Never Felt So Good - таба, видео

Регистрация Запомнить меня
Войти через:  Facebook Google Twitter Vk Yandex Mail.ru

Gwar - Rock And Roll Never Felt So Good - таба, видео

Печатать
Просмотров: 121
Song: Rock n Roll Never Felt So Good
Written By: Gwar
Album: America Must Be Destroyed

 -------------------------------------------------------------|
|-------------------------------------------------------------|
|-------------------------------------------------------------|
|--2-2-2-2-O---O-------------------------2-2-2-2-O---O-2------|
|------------2---2------------5-2-2-4-5------------2----------|
 ------------------5-5-5-3-5-----------------------------5-3--|

 ----------------------|
 ----------------------|
 ----------------------|
 ----------------------|
 ------5---------------|
 --5-5---5-3-O(ring)---|

And I said Baby you're looking good
 ---------------------------------------------------------------|
|---------------------------------------------------------------|
|---------------------------------------------------------------|
|--222222222----------------------------------------------------|
|------------4h5--------------4h5-5-55555------3-3-2-OOOOOOOOO--|
 ----------------3-3333333333-------------3333------------------|

 -----------------------------------------------------------------|
 -----------------------------------------------------------------|
 ---------------------------------------------------------------2-|
 ------2222222222-------------------------------------------O-2---|
 --4h5------------4h5------------4h5-5-55555------3-2-O-2-3-------|
 ---------------------3-33333333-------------3333-----------------|

 --------------------------------------|
 --------------------------------------|
 --------------------------------------|
 --2-3-2-3-5-5--5s7---3s5---2s4--------|
 --------------------------------------|
 -------------------5-----3-----4------|

Good so Good so Good so Good

 ---------------------------------------|
|---------------------------------------|
|---------------------------------------|Play Twice
|---------------------------------------| then
|--777777--5555555--4444444--7777777----|
 --555555--3333333--2222222--5555555----|

Gooo...ooooo..ooooo...ooo...oooooD
 -----------------------------|
|-----------------------------|
|-----------------------------|
|-----------------------------|
|--7--7-5--7-5-3-5-3---3-5----|
 --5--5-3--5-3-------7--------|


 --------------------------------------------------------------|
|--------------------------------------------------------------|
|--------------------------------------------------------------|
|--9-9-9-9-7-4-7-4------------7-4-4-6s7--9-9-9-9-7-4-7-9-------|
|--7-7-7-7-5-2-5-2--7-7-7-5-7-5-2-2-4s5--7-7-7-7-5-2-5-7-7-5---|
 -------------------5-5-5-3-5----------------------------5-3---|


------------------|
------------------|
------------------|
-------7----------|
---7-7-5-7-5-2----|
---5-5---5-3-O----|
End
Добавлено: 18.07.2012
Другие материалы по этой песне:
  • Аккорды и текст

Страница создана 18.07.2012
http://primanota.ru/gwar/rock-and-roll-never-felt-so-good-chords.htm
Привет, Гость.
Предлагаем пройти революционный курс по гитаре.
Подарок от PrimaNota.Ru, забирай!