PrimaNota.ru - самый крупный в мире бесплатный архив песенных текстов, аккордов, табулатур и нот


Gwar - Penile Drip - текст песни, таба, видео

Регистрация Запомнить меня
Войти через:  Facebook Google Twitter Vk Yandex Mail.ru

Gwar - Penile Drip - текст песни, таба, видео

Печатать
Просмотров: 135
Уроки эстрадного вокала в Санкт-Петербурге
One of the most over-looked GWAR songs. A very quick, strange
song. At the end, Oderus sounds almost exactly like Brak.

All strings tuned half-step down.

Intro
|------------------------------------|
|------------------------------------|
|------------------------------------|
|--5-5-5-5-5-5-5-8--5-5-5-5-5-5-5-8--|
|--5-5-5-5-5-5-5-8--5-5-5-5-5-5-5-8--|
|--3-3-3-3-3-3-3-6--3-3-3-3-3-3-3-6--|
PM . . . . . . .    . . . . . . .

(Play Nothing During The First Part of Verse)

Verse Break
|------------------------------------------|
|------------------------------------------|
|--4-0-0-----0--0-5-0-5-0-2-0-4-4-2-2-2-0--|
|--------0h3-------------------------------|
|------------------------------------------|
|------------------------------------------| x2

Verse (Heavily Palm Muted)
|------------------------------------------------|
|------------------------------------------------|
|--4-0-0-----0---------------4-0-0-----0------0--|
|--------0h3----0-3-0-3-0--0-------0h3----0h3----|
|------------------------------------------------|
|------------------------------------------------| x4
PM . . . . . .  . . . . .  . . . . . . .  . . .

Chorus
|------------------------------|
|------------------------------|
|------------------------------|
|--5-5-5--8-8-8--5-5-5--3-3-3--|
|--5-5-5--8-8-8--5-5-5--3-3-3--|
|--3-3-3--6-6-6--3-3-3--1-1-1--| x4

Repeat Verse Break
Repeat Verse
Repeat Chorus

Final Chorus
|------------------------------|
|------------------------------|
|------------------------------|
|--5-5-5--8-8-8--5-5-5--3-3-3--|
|--5-5-5--8-8-8--5-5-5--3-3-3--|
|--3-3-3--6-6-6--3-3-3--1-1-1--| x2

|-------------------------|
|-------------------------|
|-------------------------|
|--5-5-5--8-8-8--5-5--3~--|
|--5-5-5--8-8-8--5-5--3~--|
|--3-3-3--6-6-6--3-3--1~--|

|-----------------|
|-----------------|
|-----------------|
|--5~~--8~~--5~~--|
|--5~~--8~~--5~~--|
|--3~~--6~~--3~~--|

Ending (Oderus sounding like Brak)
|---------|
|---------|
|---------|
|--5~~\\--|
|--5~~\\--|
|--3~~\\--|


Legend
=======
PM  | Palm Muting
h   | Hammer-On
\   | Slide Down
~   | Hold Note/Vibrato


Mkay...that's about it...Feedback is welcome.

-DH
==================================================
Добавлено: 10.04.2012
Другие материалы по этой песне:
  • Аккорды и текст

Страница создана 10.04.2012
http://primanota.ru/gwar/penile-drip-chords.htm
Привет, Гость.
Предлагаем пройти революционный курс по гитаре.
Подарок от PrimaNota.Ru, забирай!