PrimaNota.ru - самый крупный в мире бесплатный архив песенных текстов, аккордов, табулатур и нот


Gwar - Penguin Attack - текст песни, бас-таба, видео

Регистрация Запомнить меня
Войти через:  Facebook Google Twitter Vk Yandex Mail.ru

Gwar - Penguin Attack - текст песни, бас-таба, видео

Печатать
Просмотров: 163
-------------------------------------------------------------------------------
Penguin Attack  - GWAR
-------------------------------------------------------------------------------

  Intro
G|---------------------------------------------------------------|
D|---------------------------------------------------------------|
A|------9-7----9--------9-7-----------------9-7------------------|
E|-9-------------9-------------9----9-9-9----------9-9-9---------|

  0:19, 0:52
G|---------------------------------------------------------------|
D|---------------------------------------------------------------|
A|---------------------------------------7-----------------------|
E|-9--9--9-9-9-7--7--7-7-7-9--9--9-9-9-----9-9-9-9-9-9-----------|

  0:40, 1:12, 2:20
G|---------------------------------------------------------------|
D|---------------------------------------------------------------|
A|-7-------------7-------------7-------------7-------------------|
E|---9-9-9-9-9-9---9-9-9-9-9-9---9-9-9-9-9-9---9-9-9-9-9-9-------|

  0:45, 2:13
G|---------------------------------------------------------------|
D|---------------------------------------------------------------|
A|------------------------------------------8---5-5-5-5-5--8-----|
E|-8-8-8-8-8-8-8-8-8-8-8-8-8-8---7-7-7-7-7-----------------------|
  
  1:17, 1:31, 3:08 (3:03 are low Es)
G|---------------------------------------------------------------|
D|---------------------------------------------------------------|
A|7---------------------------------7----------------------------|
E|----7-8---7-5--5-5-5-5-5-5-5-5-------7-8---7-9--9-9-9-9-9-9-9-9|

  1:27
G|---------------------------------------------------------------|
D|---------------------------------------------------------------|
A|-----------8--5-5-5-5-5--8-------------------------------------|
E|-7-7-7-7-7-------------------8-8-8-8-8-8-8-8-8-8-8-8-8-8-8-8---|

  1:39, 2:57
G|---------------------------------------------------------------|
D|---------------------------------------------------------------|
A|------7---9-9-7--------7---9-9-7-------7---9-9-7-------7--9-9--|
E|-9-0-------------9-0--------------9-0-------------9-0----------|

  2:40
G|---------------------------------------------------------------|
D|---------------------------------------------------------------|
A|7-------------8-------------9-------------10-------------------|
E|--9-9-9-9-9-9---9-9-9-9-9-9---9-9-9-9-9-9----9-9-9-9-9-9-------|
Добавлено: 20.06.2012
Другие материалы по этой песне:

Страница создана 16.03.2012
http://primanota.ru/gwar/penguin-attack-chords.htm
Привет, Гость.
Предлагаем пройти революционный курс по гитаре.
Подарок от PrimaNota.Ru, забирай!