PrimaNota.ru - самый крупный в мире бесплатный архив песенных текстов, аккордов, табулатур и нот


Gwar - Let Us Slay - текст песни, таба, видео

Регистрация Запомнить меня
Войти через:  Facebook Google Twitter Vk Yandex Mail.ru

Gwar - Let Us Slay - текст песни, таба, видео

Печатать
Просмотров: 308
Gwar-Lust in Space-Let Us Slay (Solo)

This is the first thing I have ever tabbed out so if you have any questions, email
me at big_boss_ownz@yahoo.com
It's not 100% accurate and I figured most of it out by ear, but I find it's a
pretty basic start on the solo

R.I.P Cory Smoot

e|------------------------------------------|
B|------------------------------------------|
G|-12p10p9(~)-------------------------------| x9 (end with a vibrato on 9)
D|------------------------------------------|
A|------------------------------------------|
E|------------------------------------------|

e|---------------------------------------------------------|
B|---------------------------------------------------------|
G|--///15-///17///19-19p0-17p0-15p0-14p0-12p0-10p0-9~------| (/// Tremlo pick to note 
D|---------------------------------------------------------| from top of the neck)
A|---------------------------------------------------------|
E|---------------------------------------------------------|

e|------------------------------------------------------------------------------------|
B|--------9-10-12p10p9h10----10-9-----------------------------------------------------|
G|-7-9-10-----------------10------10-9---7s9~-7-9-10p9p7----7-------------------------|
D|-------------------------------------------------------10---10-9-7-9-10p9p7-5s7~----|
A|------------------------------------------------------------------------------------|
E|------------------------------------------------------------------------------------|

e|------------------------------------------------|
B|------------------------------------------------|
G|-------10p9p7h9~---------10p9p7h9~-----------7b-|  pick fast and bend into a full bend
D|------------------------------------------------|  and finish with a vibrato
A|------------------------------------------------|
E|-0-0-0--------------0-0-0-----------------------|
Добавлено: 25.06.2012
Другие материалы по этой песне:
  • Аккорды и текст

Страница создана 25.06.2012
http://primanota.ru/gwar/let-us-slay-chords.htm
Привет, Гость.
Предлагаем пройти революционный курс по гитаре.
Подарок от PrimaNota.Ru, забирай!