PrimaNota.ru - самый крупный в мире бесплатный архив песенных текстов, аккордов, табулатур и нот


Gwar - Je Mappelle J Cousteau - текст песни, таба, видео

Регистрация Запомнить меня
Войти через:  Facebook Google Twitter Vk Yandex Mail.ru

Gwar - Je Mappelle J Cousteau - текст песни, таба, видео

Печатать
Просмотров: 124
This is "Je M'Appelle J. Cousteau" from Hell-O! I'm tabbing 
it in both standard and half-step, and I'm  listing the 
half-step one as "Live".



INTRO
|--------|
|--------|
|--9\\\--|
|--9\\\--|
|--7\\\--|
|--------|


MAIN RIFF/VERSES
|-------------------------------------------|
|-------------------------------------------|
|--9-------9-------9-------9-9-11-12-11-9~--|
|--9-------9-------9-------9-9-11-12-11-9~--|
|--7-------7-------7-------7-7--9-10--9-7~--|
|----0-0-0---0-0-0---0-0-0------------------|
PM   . . .   . . .   . . . 

|--------------------------------------|
|--------------------------------------|
|--9-------9-------9-------7~------7~--|
|--9-------9-------9---7-7-5~--7-7-5~--|
|--7-------7-------7---5-5-----5-5-----|
|----0-0-0---0-0-0---0-----------------| x6
PM   . . .   . . .   .


CHORUS
|---------------------------------|
|---------------------------------|
|--10~~--9~~--12~~----------------|
|--10~~--9~~--12~~---7----5--7-7--|
|---8~~--7~~--10~~-----7----------|
|---------------------------------| x4
                    ^^^^^^^^^^^^
                  (Not sure about this part)


Repeat    MAIN RIFF/VERSES


INTERLUDE
|---------------------------------------------------|
|---------------------------------------------------|
|-------------------------------------------10--10--|
|--9-9-9--9-9-9-9-9-9-9--9-9-9-9-9-9-9--9-9-10--10--|
|--9-9-9--9-9-9-9-9-9-9--9-9-9-9-9-9-9--9-9--8---8--|
|--7-7-7--7-7-7-7-7-7-7--7-7-7-7-7-7-7--7-7---------| x4
PM . .    . . . . . .    . . . . . .    . .


Repeat    CHORUS


ENDING
|-------------------------------------------|
|-------------------------------------------|
|--9-------9-------9-------9-9-11-12-11-9~--|
|--9-------9-------9-------9-9-11-12-11-9~--|
|--7-------7-------7-------7-7--9-10--9-7~--|
|----0-0-0---0-0-0---0-0-0------------------|
PM   . . .   . . .   . . . 

|--------------------------------------|
|--------------------------------------|
|--9-------9-------9-------7~------7~--|
|--9-------9-------9---7-7-5~--7-7-5~--|
|--7-------7-------7---5-5-----5-5-----|
|----0-0-0---0-0-0---0-----------------|
PM   . . .   . . .   .

|-------------------------------------------|
|-------------------------------------------|
|--9-------9-------9-------9-9-11-12-11-9~--|
|--9-------9-------9-------9-9-11-12-11-9~--|
|--7-------7-------7-------7-7--9-10--9-7~--|
|----0-0-0---0-0-0---0-0-0------------------|
PM   . . .   . . .   . . . 

|---------------------------------------------------|
|---------------------------------------------------|
|--9-------9-------9-----7-----7-----7-----7---9~~--|
|--9-------9-------9--7--5--7--5--7--5--7--5---9~~--|
|--7-------7-------7--5-----5-----5-----5------7~~--|
|----0-0-0---0-0-0----------------------------------|
PM   . . .   . . .  




Legend
=======
\    | Slide Down
PM   | Palm Muting
~    | Hold Note



That's it. A great song from Hell-O!. I'll try to figure out 
what the part of the chorus is that I'm not sure about.
Feedback is welcomed.

-- DH 
====================================================================
Добавлено: 03.04.2012
Другие материалы по этой песне:
  • Аккорды и текст

Страница создана 03.04.2012
http://primanota.ru/gwar/je-mappelle-j-cousteau-chords.htm
Привет, Гость.
Предлагаем пройти революционный курс по гитаре.
Подарок от PrimaNota.Ru, забирай!