PrimaNota.ru - самый крупный в мире бесплатный архив песенных текстов, аккордов, табулатур и нот


Gwar - Happy Death Day - текст песни, таба, видео

Регистрация Запомнить меня
Войти через:  Facebook Google Twitter Vk Yandex Mail.ru

Gwar - Happy Death Day - текст песни, таба, видео

Печатать
Просмотров: 27
Уроки эстрадного вокала в Санкт-Петербурге
[Intro]

eb|--------------------------------------------------------------------------------|
Bb|--------------------------------------------------------------------------------|
Gb|-2------2---------2----------2------2-------------------------------------------|
Db|-2-5p2--2---5p2---2----------2-5p2--2-------------------------------------------|
Ab|-0-3p0----0-3p0-0---0-+2b3~--0-3p0----0-3-2-0-3-0-2-----------------------------|
Eb|--------------------------------------------------------------------------------|

eb|--------------------------------------------------------------------------------|
Bb|----------------------------------------------6---------------------------------|
Gb|-2------2---------2--------2------2-----------5---------------------------------|
Db|-2-5p2--2---5p2---2--------2-5p2--2-----------3---------------------------------|
Ab|-0-3p0----0-3p0-0---0-2/3~-0-3p0----0-3-2-0-0-----------------------------------|
Eb|--------------------------------------------------------------------------------|

eb|--------------------------------------------------------------------------------|
Bb|--------------------------------------------------------------------------------|
Gb|-2----2---------2---------2----2------------------------------------------------|
Db|-2-5--2---5p2---2---------2-5--2------------------------------------------------|
Ab|-0-3----0-3p0-0---0-2/3---0-3----0-3-2-0-3-0-2----------------------------------|
Eb|--------------------------------------------------------------------------------|

eb|--------------------------------------------------------------------------------|
Bb|--------------------------------------------6-----------------------------------|
Gb|-2----2---------2--------2------2-----------5-----------------------------------|
Db|-2-5--2---5p2---2--------2-5p2--2-----------3-----------------------------------|
Ab|-0-3----0-3p0-0---0-2/3~-0-3p0----0-3-2-0-0-------------------------------------|
Eb|--------------------------------------------------------------------------------|


[Verse 1]

eb|--------------------------------------------------------------------------------|
Bb|--------------------------------------------------------------------------------|
Gb|-2----2---------2--------2----2-------------------------------------------------|
Db|-2-5--2---5p2---2--------2-5--2-------------------------------------------------|
Ab|-0-3----0-3p0-0---0-2/3--0-3----0-3-2-0-3-0-2-----------------------------------|
Eb|--------------------------------------------------------------------------------|

eb|--------------------------------------------------------------------------------|
Bb|--------------------------------------------6-----------------------------------|
Gb|-2----2---------2--------2------2-----------5-----------------------------------|
Db|-2-5--2---5p2---2--------2-5p2--2-----------3-----------------------------------|
Ab|-0-3----0-3p0-0---0-2/3--0-3p0----0-3-2-0-0-------------------------------------|
Eb|--------------------------------------------------------------------------------|

eb|--------------------------------------------------------------------------------|
Bb|--------------------------------------------------------------------------------|
Gb|-2----2---------2--------2----2-------------------------------------------------|
Db|-2-5--2---5p2---2--------2-5--2-------------------------------------------------|
Ab|-0-3----0-3p0-0---0-2/3--0-3----0-3-2-0-3-0-2-----------------------------------|
Eb|--------------------------------------------------------------------------------|

eb|--------------------------------------------------------------------------------|
Bb|--------------------------------------------6-----------------------------------|
Gb|-2----2---------2--------2------2-----------5-----------------------------------|
Db|-2-5--2---5p2---2--------2-5p2--2-----------3-----------------------------------|
Ab|-0-3----0-3p0-0---0-2/3--0-3p0----0-3-2-0-0-------------------------------------|
Eb|--------------------------------------------------------------------------------|


[Chorus]

eb|--------------------------------------------------------------------------------|
Bb|-6--5-------6--5-------------6--5-------6--5------------------------------------|
Gb|-5--4--2----5--4------6-7-9--5--4--2----5--4--5-5-5-----------------------------|
Db|-3--2--2----3--2--5-4-6-7-9--3--2--2----3--2--5-5-5-----------------------------|
Ab|-------0----------5-4-4-5-7--------0----------3-3-3--0-0-3-2-0------------------|
Eb|------------------3-2-----------------------------------------------------------|


[Bridge]

eb|--------------------------------------------------------------------------------|
Bb|--------------------------------------------------------------------------------|
Gb|--2-----5-4-----5-4---------5-4-----5-4-----------------------------------------|
Db|--2--3--5-4--5--5-4-5/7--3--5-4--5--5-4-5---------------------------------------|
Ab|--0--3--3-2--5--3-2-5/7--3--3-2--5--3-2-5---------------------------------------|
Eb|-----1-------3------3/5--1-------3------3---------------------------------------|


[Verse 2]

eb|--------------------------------------------------------------------------------|
Bb|--------------------------------------------------------------------------------|
Gb|-2----2---------2--------2----2-------------------------------------------------|
Db|-2-5--2---5p2---2--------2-5--2-------------------------------------------------|
Ab|-0-3----0-3p0-0---0-2/3--0-3----0-3-2-0-3-0-2-----------------------------------|
Eb|--------------------------------------------------------------------------------|

eb|--------------------------------------------------------------------------------|
Bb|--------------------------------------------6-----------------------------------|
Gb|-2----2---------2--------2------2-----------5-----------------------------------|
Db|-2-5--2---5p2---2--------2-5p2--2-----------3-----------------------------------|
Ab|-0-3----0-3p0-0---0-2/3--0-3p0----0-3-2-0-0-------------------------------------|
Eb|--------------------------------------------------------------------------------|

eb|--------------------------------------------------------------------------------|
Bb|--------------------------------------------------------------------------------|
Gb|-2----2---------2--------2----2-------------------------------------------------|
Db|-2-5--2---5p2---2--------2-5--2-------------------------------------------------|
Ab|-0-3----0-3p0-0---0-2/3--0-3----0-3-2-0-3-0-2-----------------------------------|
Eb|--------------------------------------------------------------------------------|

eb|--------------------------------------------------------------------------------|
Bb|--------------------------------------------6-----------------------------------|
Gb|-2----2---------2--------2------2-----------5-----------------------------------|
Db|-2-5--2---5p2---2--------2-5p2--2-----------3-----------------------------------|
Ab|-0-3----0-3p0-0---0-2/3--0-3p0----0-3-2-0-0-------------------------------------|
Eb|--------------------------------------------------------------------------------|

eb|--------------------------------------------------------------------------------|
Bb|--------------------------------------------------------------------------------|
Gb|-2----2---------2--------2----2-------------------------------------------------|
Db|-2-5--2---5p2---2--------2-5--2-------------------------------------------------|
Ab|-0-3----0-3p0-0---0-2/3--0-3----0-3-2-0-3-0-2-----------------------------------|
Eb|--------------------------------------------------------------------------------|

eb|--------------------------------------------------------------------------------|
Bb|--------------------------------------------6-----------------------------------|
Gb|-2----2---------2--------2------2-----------5-----------------------------------|
Db|-2-5--2---5p2---2--------2-5p2--2-----------3-----------------------------------|
Ab|-0-3----0-3p0-0---0-2/3--0-3p0----0-3-2-0-0-------------------------------------|
Eb|--------------------------------------------------------------------------------|

eb|--------------------------------------------------------------------------------|
Bb|--------------------------------------------------------------------------------|
Gb|-2----2---------2--------2----2-------------------------------------------------|
Db|-2-5--2---5p2---2--------2-5--2-------------------------------------------------|
Ab|-0-3----0-3p0-0---0-2/3--0-3----0-3-2-0-3-0-2-----------------------------------|
Eb|--------------------------------------------------------------------------------|

eb|--------------------------------------------------------------------------------|
Bb|--------------------------------------------6-----------------------------------|
Gb|-2----2---------2--------2------2-----------5-----------------------------------|
Db|-2-5--2---5p2---2--------2-5p2--2-----------3-----------------------------------|
Ab|-0-3----0-3p0-0---0-2/3--0-3p0----0-3-2-0-0-------------------------------------|
Eb|--------------------------------------------------------------------------------|


[Chorus]

eb|--------------------------------------------------------------------------------|
Bb|--6--5-------6--5-------------6--5-------6--5-----------------------------------|
Gb|--5--4--2----5--4------6-7-9--5--4--2----5--4--5-5-5----------------------------|
Db|--3--2--2----3--2--5-4-6-7-9--3--2--2----3--2--5-5-5----------------------------|
Ab|--------0----------5-4-4-5-7--------0----------3-3-3--0-0-3-2-0-----------------|
Eb|-------------------3-2----------------------------------------------------------|

eb|--------------------------------------------------------------------------------|
Bb|--------------------------------------------------------------------------------|
Gb|-2------2---------5---2-------------7-5-------5-4-------------------------------|
Db|-2------2---------5---2-------------7-5-7/9---5-4-5/7---------------------------|
Ab|-0--5\--0-3p0-3p0-3---0-3p0-3p0-0-0-5-3-7/9---3-2-5/7---------------------------|
Eb|----------------------------------------5/7-------3/5---------------------------|

eb|--------------------------------------------------------------------------------|
Bb|--------------------------------------------------------------------------------|
Gb|-2---------5---2-------------7-5-------5-4--------------------------------------|
Db|-2---------5---2-------------7-5-7/9---5-4-5/7----------------------------------|
Ab|-0-3p0-3p0-3---0-3p0-3p0-0-0-5-3-7/9---3-2-5/7----------------------------------|
Eb|---------------------------------5/7-------3/5----------------------------------|


eb|--------------------------------------------------------------------------------|
Bb|--------------------------------------------------------------------------------|
Gb|-2---------5--2---------4--2---------5--2---------2-----------------------------|
Db|-2---------5--2---------4--2---------5--2---------2-----------------------------|
Ab|-0-3p0-3p0-3--0-3p0-3p0-2--0-3p0-3p0-3--0-3p0-3p0-0-----------------------------|
Eb|--------------------------------------------------------------------------------|

eb|--------------------------------------------------------------------------------|
Bb|--------------------------------------------------------------------------------|
Gb|-2---------5--2-------------7-5-------5-4---5-4---5-4---------------------------|
Db|-2---------5--2-------------7-5-7/9---5-4-5-5-4-5-5-4-5/7-----------------------|
Ab|-0-3p0-3p0-3--0-3p0-3p0-0-0-5-3-7/9---3-2-5-3-2-5-3-2-5/7-----------------------|
Eb|--------------------------------5/7-------3-----3-----3/5-----------------------|


[Solo 1 - Rhythm]

eb|--------------------------------------------------------------------------------|
Bb|--------------------------------------------------------------------------------|
Gb|--2-----5-4-----5-4---------5-4-----5-4-----------------------------------------|
Db|--2--3--5-4--5--5-4-5/7--3--5-4--5--5-4-5/7-------------------------------------|
Ab|--0--3--3-2--5--3-2-5/7--3--3-2--5--3-2-5/7-------------------------------------|
Eb|-----1-------3------3/5--1-------3------3/5-------------------------------------|

eb|--------------------------------------------------------------------------------|
Bb|--------------------------------------------------------------------------------|
Gb|----5-4-----5-4---------5-4-----5-4---------------------------------------------|
Db|-3--5-4--5--5-4-5/7--3--5-4--5--5-4-5/7-----------------------------------------|
Ab|-3--3-2--5--3-2-5/7--3--3-2--5--3-2-5/7-----------------------------------------|
Eb|-1-------3------3/5--1-------3------3/5-----------------------------------------|


[Solo 1 - Lead]

eb|--------------------------------------------------------------------------------|
Bb|-------------8--6-5-------------------6-5-------6-5------6-5---5/6--6-5---6-5---|
Gb|----10--5-4---------7/9--7-5--5-4--7-------7/9------7-5------7----------7-----7-|
Db|-7------------------------------------------------------------------------------|
Ab|--------------------------------------------------------------------------------|
Eb|--------------------------------------------------------------------------------|

eb|--------------------------------------------------------------------------------|
Bb|-----------------------------------------8/10-----------------------------------|
Gb|-5-4------5-4----5-4-4--5-4--7--7/9-7-------------------------------------------|
Db|-----5/7------3-----------------------------------------------------------------|
Ab|--------------------------------------------------------------------------------|
Eb|--------------------------------------------------------------------------------|


eb|--------------------------------------------------------------------------------|
Bb|--------------------------------------------------------------------------------|
Gb|-2----2---------2----------2----2-----------------------------------------------|
Db|-2-5--2---5p2---2----------2-5--2-----------------------------------------------|
Ab|-0-3----0-3p0-0---0-2/3----0-3----0-3-2-0-3-0-2---------------------------------|
Eb|--------------------------------------------------------------------------------|

eb|--------------------------------------------------------------------------------|
Bb|--------------------------------------------6-----------------------------------|
Gb|-2----2---------2--------2------2-----------5-----------------------------------|
Db|-2-5--2---5p2---2--------2-5p2--2-----------3-----------------------------------|
Ab|-0-3----0-3p0-0---0-2/3~-0-3p0----0-3-2-0-0-------------------------------------|
Eb|--------------------------------------------------------------------------------|


[Solo 2 - Rhythm]

eb|--------------------------------------------------------------------------------|
Bb|---10--6--8--5--6--8------------------------------------------------------------|
Gb|-2--9--5--7--4--5--7------------------------------------------------------------|
Db|-2--7--3--5--2--3--5------------------------------------------------------------|
Ab|-0------------------------------------------------------------------------------|
Eb|--------------------------------------------------------------------------------|

eb|--------------------------------------------------------------------------------|
Bb|----6--8--10--------------------------------------------------------------------|
Gb|-2--5--7---9--------------------------------------------------------------------|
Db|-2--3--5---7--------------------------------------------------------------------|
Ab|-0------------------------------------------------------------------------------|
Eb|--------------------------------------------------------------------------------|

eb|--------------------------------------------------------------------------------|
Bb|--------------------------------------------------------------------------------|
Gb|-2------------------------------------------------------------------------------|
Db|-2--3--5--2--3-2----------------------------------------------------------------|
Ab|-0--3--5--2--3-2----------------------------------------------------------------|
Eb|----1--3--0--1-0----------------------------------------------------------------|


[Solo 2 - Lead]

eb|--------------------------------------------------------------------------------|
Bb|----10-------------10---10----10------10----------------------------------------|
Gb|-----9--7-7-7-7\5---7b9--7b9---7pbr9---7pbr9--5--5/7\5---5----------------------|
Db|-7-----------------------------------------------------7---7-5-7----------------|
Ab|-0------------------------------------------------------------------------------|
Eb|--------------------------------------------------------------------------------|

eb|--------------------------------------------------------------------------------|
Bb|--------------------------------------------------------------------------------|
Gb|-----5-------5-------5---7--5-----5-------5-------5---7--5----------------------|
Db|-5-7---7-5-7---7-5-7---7------5-7---7-5-7---7-5-7---7---------------------------|
Ab|--------------------------------------------------------------------------------|
Eb|--------------------------------------------------------------------------------|

eb|--------------------------------------------------------------------------------|
Bb|------------------------------13-12-10------------------------------------------|
Gb|-10p0-9p0-7p0-5p0-7p0-5p0-4\2----------12-10-9-12/14----------------------------|
Db|--------------------------------------------------------------------------------|
Ab|--------------------------------------------------------------------------------|
Eb|--------------------------------------------------------------------------------|

eb|--------------------------------------------------------------------------------|
Bb|-12-10----12-10----12-10---13-12------------------------------------------------|
Gb|-------10-------12-------9------------------------------------------------------|
Db|--------------------------------------------------------------------------------|
Ab|--------------------------------------------------------------------------------|
Eb|--------------------------------------------------------------------------------|

[Chorus - Rhythm]

eb|--------------------------------------------------------------------------------|
Bb|--------------------------------------------------------------------------------|
Gb|--------------------------------------------------------------------------------|
Db|-3--2--7---3--2--7---3--2--7---3--2--7------------------------------------------|
Ab|-3--2--7---3--2--7---3--2--7---3--2--7------------------------------------------|
Eb|-1--0--5---1--0--5---1--0--5---1--0--5------------------------------------------|


[Chorus - Lead]

eb|--------------------------------------------------------------------------------|
Bb|-13/22--13/22--13/22-13/22------------------------------------------------------|
Gb|--------------------------------------------------------------------------------|
Db|--------------------------------------------------------------------------------|
Ab|--------------------------------------------------------------------------------|
Eb|--------------------------------------------------------------------------------|


[Outro]

Rhythm

eb|--------------------------------------------------------------------------------|
Bb|--------------------------------------------------------------------------------|
Gb|--------------------------------------------------------------------------------|
Db|-3--2--7---3--2--7---3--2--7---3--2--7------------------------------------------|
Ab|-3--2--7---3--2--7---3--2--7---3--2--7------------------------------------------|
Eb|-1--0--5---1--0--5---1--0--5---1--0--5------------------------------------------|

Lead

eb|--------------------------------------------------------------------------------|
Bb|-13-12----12-13-12----12-13-12----12-15-13-12-----------------------------------|
Gb|-------14----------14----------14-----------------------------------------------| x3
Db|--------------------------------------------------------------------------------|
Ab|--------------------------------------------------------------------------------|
Eb|--------------------------------------------------------------------------------|


eb|--------------------------------------------------------------------------------|
Bb|-13-12----13-12-----------------------------------------------------------------|
Gb|-------14-------14--------------------------------------------------------------|
Db|--------------------------------------------------------------------------------|
Ab|--------------------------------------------------------------------------------|
Eb|--------------------------------------------------------------------------------|


eb|--------------------------------------------------------------------------------|
Bb|--------------------------------------------------------------------------------|
Gb|-5-5-5--------------2--------------2--------------------------------------------|
Db|-5-5-5--------------2--------------2--------------------------------------------|
Ab|-3-3-3--0-0-3-2-0-0-0--0-0-3-2-0-0-0--0-0-3-2-0-0-------------------------------|
Eb|--------------------------------------------------------------------------------|

eb|--------------------------------------------------------------------------------|
Bb|--------------------------------------------------------------------------------|
Gb|-2------------------------------------------------------------------------------|
Db|-2-5-3--------------------------------------------------------------------------|
Ab|-0-5-3--------------------------------------------------------------------------|
Eb|---3-1--------------------------------------------------------------------------|

eb|-8/17---------------------------------------------------------------------------|
Bb|--------------------------------------------------------------------------------|
Gb|--------------------------------------------------------------------------------|
Db|--------------------------------------------------------------------------------|
Ab|--------------------------------------------------------------------------------|
Eb|--------------------------------------------------------------------------------|

eb|--------------------------------------------------------------------------------|
Bb|--------------------------------------------------------------------------------|
Gb|--------------------------------------------------------------------------------|
Db|-7-7-7-7--5/7\------------------------------------------------------------------|
Ab|-7-7-7-7--5/7\------------------------------------------------------------------|
Eb|-5-5-5-5--3/5\------------------------------------------------------------------|


************************************
 
| p   Pull-off
| b   Bend
| pbr Pre-bend release
| /   Slide up
| \   Slide down
| ~   Vibrato 
| +   Pinch Harmonic

************************************
Добавлено: 08.06.2017
Другие материалы по этой песне:
  • Аккорды и текст

Страница создана 17.06.2012
http://primanota.ru/gwar/happy-death-day-chords.htm
Привет, Гость.
Предлагаем пройти революционный курс по гитаре.
Подарок от PrimaNota.Ru, забирай!