PrimaNota.ru - самый крупный в мире бесплатный архив песенных текстов, аккордов, табулатур и нот


Gwar - Dirty Filthy - текст песни, таба, видео

Регистрация Запомнить меня
Войти через:  Facebook Google Twitter Vk Yandex Mail.ru

Gwar - Dirty Filthy - текст песни, таба, видео

Печатать
Просмотров: 154
Уроки эстрадного вокала в Санкт-Петербурге
Here's most of the great song from RagNaRok.

All strings tuned down one half step.

Intro
|-------------------------------|
|-------------------------------|
|-------------------------------|
|--7/9-9-7/9-9-7/9-9-7/9-9-7-7--|
|--5/7-7-5/7-7-5/7-7-5/7-7-5-5--|
|-------------------------------|
 "I'm tellin' you, you is dirty"

Verse ("Dirty, Filthy")
|------------------------------------------------|
|------------------------------------------------|
|----------------10/9----------------------------|
|--8/9-----------10/9-----------6/7-7/8-6/7-7/8--|
|--6/7------------8/7-----------4/5-5/6-4/5-5/6--|
|------0-0-0-0-0------0-0-0-0-0------------------| x2
PM     . . . . .      . . . . . 

Verse Part 2 ("You're Dirty, Filthy, baby")
|-------------------------------------|
|-------------------------------------|
|------------------------------8-8-8--|
|-----------7-7-7-77-----------8-8-8--|
|--7-7-7-77-5-5-5-55-7-7-7-77--6-6-6--|
|--5-5-5-55----------5-5-5-55---------| x2

Chorus ("Why don't you just admit it")
|-------------------------------------|
|-------------------------------------|
|-------------------------------------|
|--9-9-9-7-4-7-7-4-2-4-4-2-4-2--------|
|--7-7-7-5-2-5-5-2-0-2-2-0-2-0-5-2-2--|
|------------------------------3-0-0--| x4

Outro
|---------------------------------------------------------------|
|---------------------------------------------------------------|
|---------------------------------------------------------------|
|--9-9-7-4-7-7---9-9-7-4-7-7---9-9-7-4-7-7-4-2-4-4-2-4-4-4-4-4--|
|--7-7-5-2-5-5---7-7-5-2-5-5---7-7-5-2-5-5-2-0-2-2-0-2-2-2-2-2--|
|---------------------------------------------------------------|



Song Structure

Intro
Verse x2
Verse Part 2
Verse
Chorus
Verse
Verse Part 2
Verse
Chorus x2 1/2 (Play the riff 10 times)
Outro



Legend 

/     Slide


There you go. I hope it sounds right. I'll work on the random solo interludes 
during the 2nd chorus.

-DH
=======================================================
Добавлено: 19.07.2012
Другие материалы по этой песне:
  • Аккорды и текст

Страница создана 18.06.2012
http://primanota.ru/gwar/dirty-filthy-chords.htm
Привет, Гость.
Предлагаем пройти революционный курс по гитаре.
Подарок от PrimaNota.Ru, забирай!