PrimaNota.ru - самый крупный в мире бесплатный архив песенных текстов, аккордов, табулатур и нот


Gwar - Bring Back The Bomb - текст песни, таба, бас-таба, видео

Регистрация Запомнить меня
Войти через:  Facebook Google Twitter Vk Yandex Mail.ru

Gwar - Bring Back The Bomb - текст песни, таба, бас-таба, видео

Печатать
Просмотров: 293
Уроки эстрадного вокала в Санкт-Петербурге
suggestions? e-mail me at the_nobody___@hotmail.com

Drop C (C,G,C,F,A,D)

~ = vibrato
. = palm muting
h = hammer on
p = pull off
* = let it ring


Intro/Verse 1
"Hiroshima, a shadow burned in time ...."
D--------------------------------------------------------|
A--------------------------------------------------------|
F--------------------------------------------------------|
C--------------------------------------------------------|
G-------8h11p8-7h10p7-------8h11p8-7h10p7-8h11p8-7h10p7--|
C-0-0-0---------------0-0-0------------------------------|
  . . .               . . .

D---------------------------------------------------------------------|
A---------------------------------------------------------------------|
F-------------------------------------------------------- guitar 1----| 6x
C---------------------------------------------------------------------|
G-------8h11p7-7h10p7-------7-7-7-------8-8-8------------ guitar 2----| 4x
C-0-0-0---------------5-5-5-------5-5-5-------------------------------|
  . . .               . . .       . . .

Verse 1.1

D--------------------------------------------------------|
A--------------------------------------------------------|
F--------------------------------------------------------|
C-------8h11p8-7h10p7-------8h11p8-7h10p7-8h11p8-7h10p7--|
G--------------------------------------------------------|
C-0-0-0---------------0-0-0------------------------------|
  . . .               . . .

D---------------------------------------------------------------------|
A---------------------------------------------------------------------|
F---------------------------------------------------------------------|
C-------8h11p8-7h10p7-------7-7-7-------8-8-8-------------------------|
G-------------------------------------------------------- guitar 2----| 2x
C-0-0-0---------------5-5-5-------5-5-5-------------------------------|
  . . .               . . .       . . .

Guitar 1 plays verse 1 - 6x
   while
Guitar 2 plays verse 1 - 4x and verse 1.1 - 2x


Verse 2

D--------------------------------------------------------|
A--------------------------------------------------------|
F-10--10--10--4--4--11--10--10--10-----------------------|
C-10--10--10--4--4--11--10--10--10-----------------8---8-|
G-8---8---8---2--2--9---8---8---8---8-8-8-11-11-11---11--|
C--------------------------------------------------------|
                                    . . . .  .  .  . . .

D--------------------------------------------------------|
A--------------------------------------------------------|
F--------------------------------------------------------|
C-11~Vibrato---------------------------------------------|
G--------------------------------------------------------|
C--------------------------------------------------------|

repeat verse 1 and 1.1
"This is state policy ..."

guitar 1 plays verse 1 - 4x
   while
guitar 2 plays verse 1 - 2x and verse 1.1 - 2x

verse 2.1 (chorus) "Bring Back the Bomb"
   (the riff below is consistant, with added licks)
D--------------------------------------------------------|
A--------------------------------------------------------|
F---10------10------4-------4---11-10-------10-----------|
C---10------10------4-------4---11-10-------10-----------|
G---8-------8-------2-------2---9--8--------8------------|
C-----0-0-0---0-0-0---0-0-0-----------0-0-0--------------|
      . . .   . . .   . . .           . . .

D--------------------------------------------------------|
A--------------------------------------------------------|
F--------------------------------------------------------|
C--------------------------------------------------------|
G--8-8-8-8-8-8-8-8-8-8-----use-reverse-picking-----------|
C--------------------------------------------------------|
   . . . . . . . . . .

D--------------------------------------------------------|
A--------------------------------------------------------|
F---10------10------4-------4---11-10-------10-----------|
C---10------10------4-------4---11-10-------10-----------|
G---8-------8-------2-------2---9--8--------8------------|
C-----0-0-0---0-0-0---0-0-0-----------0-0-0--------------|
      . . .   . . .   . . .           . . .

D--------------------------------------------------------|
A--------------------------------------------------------|
F--------------------------------------------------------|
C-----------------8----8--11~Vibrato---------------------|
G--8-8-8-11-11-11---11-----------------------------------|
C--------------------------------------------------------|
   . . . .  .  .  . .  .

D--------------------------------------------------------|
A--------------------------------------------------------|
F---10------10------4-------4---11-10-------10-----------|
C---10------10------4-------4---11-10-------10-----------|
G---8-------8-------2-------2---9--8--------8------------|
C-----0-0-0---0-0-0---0-0-0-----------0-0-0--------------|
      . . .   . . .   . . .           . . .

D--------------------------------------------------------|
A--------------------------------------------------------|
F--------------------------------------------------------|
C--------------------------------------------------------|
G--8-8-8-8-8-8-8-8-8-8-----use-reverse-picking-----------|
C--------------------------------------------------------|
   . . . . . . . . . .

D--------------------------------------------------------|
A--------------------------------------------------------|
F---10------10------4-------4---11-10-------10-----------|
C---10------10------4-------4---11-10-------10-----------|
G---8-------8-------2-------2---9--8--------8------------|
C-----0-0-0---0-0-0---0-0-0-----------0-0-0--------------|
      . . .   . . .   . . .           . . .


D--------------------------------------------------------|
A--------------------------------------------------------|
F----------------8----8-11-------------------------------| when you get to
C--8-8-8-11-8-11---11------------------------------------| this lick
G--------------------------------------------------------| play it 3x
C--------------------------------------------------------|
   . . . .  . .  . .  . .

D--------------------------------------------------------|
A--------------------------------------------------------|
F----------------8----8-11*letitring---------------------| on the 4th time
C--8-8-8-11-8-11---11------------------------------------| play this
G--------------------------------------------------------|  1x
C--------------------------------------------------------|
   . . . .  . .  . .  .

"AAAGGGGHHH"
Verse 3 (sirens go off)

D--------------------------------------------------------|
A--------------------------------------------------------|
F--10--10-----10--10-----10--10-----10--10--10*----------|
C--10--10-----10--10-----10--10-----10--10--10*----------|
G--8---8------8---8------8---8------8---8---8*-----------| play 3x
C--------------------------------------------------------|

D--------------------------------------------------------|
A--------------------------------------------------------|
F--10-----10-----10-------10--10--10*--------------------|
C-----9------9------9-----10--10--10*--------------------|
G-------8------8------8---8---8---8*---------------------|
C--------------------------------------------------------|


Verse 4
$ *TIP* $- (keep your pointer finger barred over the 1st 3 strings
on the 3rd fret)  (also use all downstrokes for this verse)

D--------------------------------------------------------|
A--------------------------------------------------------|
F--------------------------------------------------------|
C-3-3-6-3-3-5-3-3-3-3-6-3-3-5-3-3-5-6*-------------------|
G-3-3-6-3-3-5-3-3-3-3-6-3-3-5-3-3-5-6*-------------------|
C-3-3-6-3-3-5-3-3-3-3-6-3-3-5-3-3-5-6*-------------------|
Добавлено: 20.03.2012
Другие материалы по этой песне:

Страница создана 20.03.2012
http://primanota.ru/gwar/bring-back-the-bomb-chords.htm
Привет, Гость.
Предлагаем пройти революционный курс по гитаре.
Подарок от PrimaNota.Ru, забирай!