PrimaNota.ru - самый крупный в мире бесплатный архив песенных текстов, аккордов, табулатур и нот


Gwar - Berzerker - бас-таба, видео

Регистрация Запомнить меня
Войти через:  Facebook Google Twitter Vk Yandex Mail.ru

Gwar - Berzerker - бас-таба, видео

Печатать
Просмотров: 150
-------------------------------------------------------------------------------
Berzerker - GWAR
-------------------------------------------------------------------------------


Opening (same as Chorus)
G|----------------------------------------------------|
D|----------------------------------------------------|
A|--------32---------32----------32-----------32-32-32|
E|11111111----1111111----11111111-----11111111--------|

Verse 1 
G|--------------------4-----------------4-------------|
D|-----------------34----------------34---------------|
A|---------------2-----------------2------------------|
E|11122111221112--------1111221112--------------------|

G|--------------------4-----------------4-------------|
D|-----------------34----------------34---------------|
A|---------------2-----------------2------------------|
E|11122111221112--------1111221112--------------------|

then back to the opening/chorus and then back to verse one. It just keeps 
flopping back and forth. Other then that is is a decently fun song to play 
and great for beginners
Добавлено: 19.04.2012
Другие материалы по этой песне:
  • Аккорды и текст

Страница создана 19.04.2012
http://primanota.ru/gwar/berzerker-chords.htm
Привет, Гость.
Предлагаем пройти революционный курс по гитаре.
Подарок от PrimaNota.Ru, забирай!