PrimaNota.ru - самый крупный в мире бесплатный архив песенных текстов, аккордов, табулатур и нот


Gwar - Beat You To Death - текст песни, таба, видео

Регистрация Запомнить меня
Войти через:  Facebook Google Twitter Vk Yandex Mail.ru

Gwar - Beat You To Death - текст песни, таба, видео

Печатать
Просмотров: 129
Another ass-kickin' song sung by Beefcake The Mighty.
This is my favorite song from the album. Fast paced, 
tough lyrics and sick sounding.

All strings tuned half-step down.


MAIN RIFF
|------------------------------------|
|------------------------------------|
|--7-9-9-7-9-9-7-9-7-10--------------|
|--7-9-9-7-9-9-7-9-7-10--------------|
|--5-7-7-5-7-7-5-7-5--8--------------|
|-----------------------0-0-0-0-0-0--| x3
PM                      . . . . . .

|-------------------------------|
|-------------------------------|
|--7-9-9-7-9-9------------------|
|--7-9-9-7-9-9--2p0-------------|
|--5-7-7-5-7-7------3p2p0-------|
|-------------------------2b-0--|


VERSE
|------------------------------------|
|------------------------------------|
|--7-9-9-7-9-9-7-9-7-10--------------|
|--7-9-9-7-9-9-7-9-7-10--------------|
|--5-7-7-5-7-7-5-7-5--8--------------|
|-----------------------0-0-0-0-0-0--| x4
PM                      . . . . . .


FIRST CHORUS
|-------------------------------------------------------------------|
|-------------------------------------------------------------------|
|-------------------------------------------------------------------|
|--8-8-8-8-8-8--7-7-5-3---------------------------------------------|
|--8-8-8-8-8-8--7-7-5-3---------------------------------------------|
|--6-6-6-6-6-6--5-5-3-1--0-0-0-0-1-0-0-0-0-1-0-0-0-0-1-0-0-0-0-0-0--|
PM                       . . . .   . . . .   . . . .   . . . . . .

|---------------------------------------------------------------------|
|---------------------------------------------------------------------|
|---------------------------------------------------------------------|
|--8-8-8-8-8-8--7-7-5-3-------------------------------2p0-------------|
|--8-8-8-8-8-8--7-7-5-3-----------------------------------3p2p0-------|
|--6-6-6-6-6-6--5-5-3-1--0-0-0-0-0-0-1-0-0-0-0-0-0-1------------2b-0--|
PM                       . . . . . .   . . . . . .

Repeat    VERSE


CHORUS
|-------------------------------------------------------------------|
|-------------------------------------------------------------------|
|-------------------------------------------------------------------|
|--8-8-8-8-8-8--7-7-5-3---------------------------------------------|
|--8-8-8-8-8-8--7-7-5-3---------------------------------------------|
|--6-6-6-6-6-6--5-5-3-1--0-0-0-0-1-0-0-0-0-1-0-0-0-0-1-0-0-0-0-0-0--| x3
PM                       . . . .   . . . .   . . . .   . . . . . .

|---------------------------------------------------------------------|
|---------------------------------------------------------------------|
|---------------------------------------------------------------------|
|--8-8-8-8-8-8--7-7-5-3-------------------------------2p0-------------|
|--8-8-8-8-8-8--7-7-5-3-----------------------------------3p2p0-------|
|--6-6-6-6-6-6--5-5-3-1--0-0-0-0-0-0-1-0-0-0-0-0-0-1------------2b-0--|
PM                       . . . . . .   . . . . . .


BREAK
|-----------------------------------------------------|
|-----------------------------------------------------|
|--7-9-------------7-9-12~---7-9-------------7-9-10~--|
|--7-9-------------7-9-12~---7-9-------------7-9-10~--|
|--5-7-------------5-7-10~---5-7-------------5-7--8~--|
|------0-0-0-0-0-0---------------0-0-0-0-0-0----------| x2
PM     . . . . . .               . . . . . .


Repeat    VERSE
          CHORUS


INTERLUDE (PART I)
|----------------------------------------------|
|----------------------------------------------|
|--7-9-7-9-7-9-7-9-7-10-7-9-7-9-7-9-7-10-7-8~--|
|--7-9-7-9-7-9-7-9-7-10-7-9-7-9-7-9-7-10-7-8~--|
|--5-7-5-7-5-7-5-7-5--8-5-7-5-7-5-7-5--8-5-6~--|
|----------------------------------------------| x2


INTERLUDE (PART II)
|----------------------------------------------|
|----------------------------------------------|
|--7-9-7-9-7-9-7-9-7-10-7-9-7-9-7-9-7-10-7-8~--|
|--7-9-7-9-7-9-7-9-7-10-7-9-7-9-7-9-7-10-7-8~--|
|--5-7-5-7-5-7-5-7-5--8-5-7-5-7-5-7-5--8-5-6~--|
|----------------------------------------------| x2
PM . . . . . . . . .  . . . . . . . .  . . .


Repeat    INTERLUDE (PART I)


INTERLUDE (PART III) ("Beat You Down!")
|------------------------------------------------------------|
|------------------------------------------------------------|
|-----------------3~-----------------------3~----------------|
|--8~--7~-5-3-----3~----3-5-6-5-3----------3~----3-5-6-5-3~--|
|--8~--7~-5-3-----1~----3-5-6-5-3----------1~----3-5-6-5-3~--|
|--6~--5~-3-1-0-0-----0-1-3-4-3-1-0--0-0-0-----0-1-3-4-3-1~--|
PM            . .     . . . . . . .  . . .     . . . . . .

|-------------------------------------------------|
|-------------------------------------------------|
|------3~-----------------------3~----------------|
|------3~----3-5-6-5-3----------3~----3-5-6-5-3~--|
|------1~----3-5-6-5-3----------1~----3-5-6-5-3~--|
|--0-0-----0-1-3-4-3-1-0--0-0-0-----0-1-3-4-3-1~--| x3
PM . .     . . . . . . .  . . .     . . . . . .


PRE-SOLO
|---------------------------------------|
|---------------------------------------|
|---------------------------------------|
|----3-5-6-5-3~----3-5-6-5-3~--------8--|
|----3-5-6-5-3~----3-5-6-5-3~--------8--|
|--0-1-3-4-3-1~--0-1-3-4-3-1~--0-0-0-6--|
PM . . . . . .   . . . . . .   . . .


SOLO
|Rhythm
|--------------------------------------|
|--------------------------------------|
|--7-9-----7-9-12~----7-9-----7-9-10~--|
|--7-9-----7-9-12~----7-9-----7-9-10~--|
|--5-7-----5-7-10~----5-7-----5-7--8~--|
|--------------------------------------| x8


OUTRO
|---------------------------|
|---------------------------|
|--7-9-9-7-9-9-7-9-9-7-9-9--|
|--7-9-9-7-9-9-7-9-9-7-9-9--|
|--5-7-7-5-7-7-5-7-7-5-7-7--|
|---------------------------| x3

|-------------------------------|
|-------------------------------|
|--7-9-9-7-9-9------------------|
|--7-9-9-7-9-9--2p0-------------|
|--5-7-7-5-7-7------3p2p0-------|
|-------------------------2b-0--|



Legend
========
PM   | Palm Muting
p    | Pull-Off
b    | Bend Note
~    | Hold Note



And that's it. I'm not sure about the interlude (the "Beat You 
Down" part), but the rest is pretty accurate. I might tab out
the solo if I figure it out, but until then, this is good.
Feedback is welcomed.

-- DH
===============================================================
Добавлено: 06.05.2012
Другие материалы по этой песне:
  • Аккорды и текст

Страница создана 06.05.2012
http://primanota.ru/gwar/beat-you-to-death-chords.htm
Привет, Гость.
Предлагаем пройти революционный курс по гитаре.
Подарок от PrimaNota.Ru, забирай!