PrimaNota.ru - самый крупный в мире бесплатный архив песенных текстов, аккордов, табулатур и нот


Guy Van Duser - I Let A Song Go - аккорды и текст, таба, видео

Регистрация Запомнить меня
Войти через:  Facebook Google Twitter Vk Yandex Mail.ru

Guy Van Duser - I Let A Song Go - аккорды и текст, таба, видео

Печатать
Просмотров: 126
I Let A Song Go
Guy Van Duser
		   I Let A Song Go Out Of My Heart
                          By:Duke Ellington
         		Arranged by: Guy Van Duser
         Prepared by: Tim Reid-Wilkinson 75364.741@compuserve.com

Drop D Tuning - Capo 6 frets
||-------3-0-|-----------------|---2-0-------2-|-2-2-------|
||-------1-2-|-3-5-3-----------|---3-0-3-0-----|---3-2-1p0-|
||-0-2p0-----|-0h-p--0---------|---2-1-----0---|---2-1-----|
||-0---------|-----------------|---------------|-----------|
||-------0-1-|-2-------5-4-3-2-|-2-2-----------|---2-------|
||-5---------|-----------------|-----2---------|-----2-----|



--------------|---3-----0-|---------------|-----------||
------1-2---3-|-3---1-2---|-3h5p3---------|-----------||
--2-4-2-2-1-0-|-0---------|-------0-0-0-0-|-0-------4-||
--2-1---------|-----------|---------2-1-0-|-0-0-1-2-4-||
--3-2-0-1---2-|-2---0-1---|-2-------3-3-2-|-2-------5-||
--------------|-----------|---------------|---------0-||



------3---0-|-----------------|---2-0-------2-|-2-2---------|
------1-2---|-3-5-3-----------|---3-0-3-0-----|---3-2-1p0---|
0-2p0-------|-0h-p--0---------|---2-1-----0---|---2-1-----3-|
0-----------|-----------------|---------------|-------------|
------0-1---|-2-------5-4-3-2-|-2-2-----------|---2---------|
5-----------|-----------------|-----2---------|-----2-------|



p--------------|---3-----0-|---------------||
-------1-2---3-|-3---1-2---|-3h5p3---------||
-2-2-4-2-2-1-0-|-0---------|-------0-0-0-0-||
---2-1---------|-----------|---------2-1-0-||
---3-2-0-1---2-|-2---0-1---|-2-------3-3-2-||
---------------|-----------|---------------||



---------------|----------------|---------------|-------------|
---------------|----------------|-3-----4---4-3-|-------------|
-0-------------|--------4-4-2/4-|-4-----3---3-2-|---3/4---2-0-|
-0-------------|--0-2-4---------|-4-----4---4-2-|-------4---2-|
-2-------------|--3-------------|-3---3-------2-|-----------5-|
---0-2-5-2-3-4-|4---------------|---0-----0-----|-0---------5-|



--------------3-|-3-----------3-|-3-1-1-3---|----------|-------------||
----------3-0-0-|-0-----------1-|-1---1---4-|------1-4-|-5-5-5-------||
0-----2-4-----0-|-0-----------1-|-1---1-----|--3---3---|-2-----3-----||
2-3/5-----------|---2-1-4-3-2-1-|-1---0-----|--6---5---|-5-----4-----||
5---------------|---------------|-----------|4-----4---|-3-----3-----||
5-------------2-|-2-------------|-----------|----1-----|-------0-0-4-||

Repeat first verse

======================================================================
==    Created with the a shareware version of the BUCKET 'O TAB     ==
==             tablature creation software for Windows              ==
==                      For more information:                       ==
==                     email: gse@ocsystems.com                     ==
== US Mail: The Bucket, 3176-B5 Summit Square Dr., Oakton, VA 22124 ==
======================================================================     
Добавлено: 28.11.2013
Другие материалы по этой песне:
  • Аккорды и текст

Страница создана 20.05.2012
http://primanota.ru/guy-van-duser/i-let-a-song-go-chords.htm
Привет, Гость.
Предлагаем пройти революционный курс по гитаре.
Подарок от PrimaNota.Ru, забирай!