PrimaNota.ru - самый крупный в мире бесплатный архив песенных текстов, аккордов, табулатур и нот


Guttermouth - Up Your Bum - аккорды и текст, видео

Регистрация Запомнить меня
Войти через:  Facebook Google Twitter Vk Yandex Mail.ru

Guttermouth - Up Your Bum - аккорды и текст, видео

Печатать
Просмотров: 136
Up Your Bum
Guttermouth
******************************************************************************
Artist: Guttermouth
Song: Up Your Bum (last song in 1-2-3-4)
Album: Teri Yakimoto
Tabbed by: Zaff
(standard tuning)
 
Verse:
e:---------------------------------------------------------------------------|
B:---------------------------------------------------------------------------|
G:--5-5-555------------------------------------------------------------------|
D:--5-5-555---5-5-555---3-3-333---5-5-555------------------------------------|
A:--3-3-333---5-5-555---3-3-333---5-5-555------------------------------------|
E:------------3-3-333---1-1-111---3-3-333------------------------------------|
 

Chorus: (x4)
e:---------------------------------------------------------------------------|
B:---------------------------------------------------------------------------|
G:--5------------------------------------------------------------------------|
D:--5---3---5----------------------------------------------------------------|
A:--3---3---5----------------------------------------------------------------|
E:------1---3----------------------------------------------------------------|
 
It^Òs so easy! Enjoy it! -CIAO-
 
     
Добавлено: 31.08.2013
Другие материалы по этой песне:
  • Аккорды и текст

Страница создана 14.08.2013
http://primanota.ru/guttermouth/up-your-bum-chords.htm
Привет, Гость.
Предлагаем пройти революционный курс по гитаре.
Подарок от PrimaNota.Ru, забирай!