PrimaNota.ru - самый крупный в мире бесплатный архив песенных текстов, аккордов, табулатур и нот


Guttermouth - This Wont Hurt A Bit - таба, видео

Регистрация Запомнить меня
Войти через:  Facebook Google Twitter Vk Yandex Mail.ru

Guttermouth - This Wont Hurt A Bit - таба, видео

Печатать
Просмотров: 82
-------------------------------------------------------------------------------
                             This Won't Hurt A Bit - Guttermouth
-------------------------------------------------------------------------------
Tabbed by:rob
Email:brainwashed_monkey@bluebottle.com

Tuning:EADGBe

intro and "one more time..."
e|--------------------------|
B|--------------------------|
G|----66----66----66----66--|
D|-66-66-44-66-44-66-44-66--|
A|-66-44-44-44-44-44-44-44--|
E|-44----22----44----22-----|

verse [if you're good you can solo over this like in the song]
e|---------------------|
B|---------------------|
G|------6666------6666-|
D|-6666-6666-4444-6666-|
A|-6666-4444-4444-4444-|
E|-4444------2222------|

the other bit
e|------------------------|
B|------------------------|
G|---------------66-------|
D|-6xxxxxxxxxxx--66--44---|
A|-6xxxxxxxxxxx--44--44---|
E|-4xxxxxxxxxxx------22---|

end with this
e|----------------|
B|----------------|
G|-66-------------|
D|-66--44--66-----|
A|-44--44--66-----|
E|-----22--44-----|


don't talk back or you'll get slapped

| /  slide up
| \  slide down
| h  hammer-on
| p  pull-off
| ~  let ring
| +  harmonic
| x  Mute note
===============================================================================
Добавлено: 26.04.2012
Другие материалы по этой песне:
  • Аккорды и текст

Страница создана 26.04.2012
http://primanota.ru/guttermouth/this-wont-hurt-a-bit-chords.htm
Привет, Гость.
Предлагаем пройти революционный курс по гитаре.
Подарок от PrimaNota.Ru, забирай!