PrimaNota.ru - самый крупный в мире бесплатный архив песенных текстов, аккордов, табулатур и нот


Guttermouth - Surfs Up Asshole - бас-таба, видео

Регистрация Запомнить меня
Войти через:  Facebook Google Twitter Vk Yandex Mail.ru

Guttermouth - Surfs Up Asshole - бас-таба, видео

Печатать
Просмотров: 98
Guttermouth

Song: Surfs Up Asshole
Album: Eat Your Face
Tuning : Standard

Tabbed by Tottness


Intro

G|-----------------------------|
D|-----------------------------|    X 6
A|-----5-6-7-5-4----4-5--------|
E|--5-------------5------5~----|
Before the Intro begins make a Slide from 10 to 6 on E.


Main Riff

G|-----------------------------|
D|-----------------------------|    X6
A|-----5-6-7-5-4----4-5--------|
E|--5-------------5------5~----|


Chorus

G|------------------------------------------------|
D|------------------------------------------------|
A|-------------------5-6---------------------5-6--|
E|--5----5----5----5--------5----5----5----5------|

After that…

…Main Riff X 6

Chorus

After the second Chorus…

…Riff 2

G|----------------------------------------------------------|
D|--------------------------------5-6----5-6----------------|
A|----5-6----5-6----5-6----5-6--5------5--------5-6----5-6--|
E|--5------5------5------5--------------------5------5------|

After that…

Main Riff X 4

Chorus

Main Riff X 4


Have fun!

Greetz 
tottness
Добавлено: 27.02.2012
Другие материалы по этой песне:
  • Аккорды и текст

Страница создана 27.02.2012
http://primanota.ru/guttermouth/surfs-up-asshole-chords.htm
Привет, Гость.
Предлагаем пройти революционный курс по гитаре.
Подарок от PrimaNota.Ru, забирай!