PrimaNota.ru - самый крупный в мире бесплатный архив песенных текстов, аккордов, табулатур и нот


Guttermouth - Shave The Planet - текст песни, бас-таба, видео

Регистрация Запомнить меня
Войти через:  Facebook Google Twitter Vk Yandex Mail.ru

Guttermouth - Shave The Planet - текст песни, бас-таба, видео

Печатать
Просмотров: 124
Intro:

G:---
D:---
A:-1- x24
E:---

G:-----------------------------------------------------------------------|
D:-----------------------------------------------------------------------|
A:-1-1-1-1-1-1-1-1--4-4-4-4--6-6-6-6--1-1-1-1-1-1-1-1--4-4-4-4-----------|  x2
E:-------------------------------------------------------------4-4-4-4---|

Verse: x2

G:--------------------------------------------------------------|
D:--------------------------------------------------------------|
A:-1-1-1-1-1-1-1-1--4-4-4--6-6-6--1-1-1-1-1-1-1-1--4-4-4--------| x2
E:-------------------------------------------------------4-4-4--|

G:---
D:---
A:-1- x6
E:---

Chorus:

G:--------------------------------|
D:--------------------------------|
A:-6-6-6--1-1-1--4-4-4------------| x3
E:---------------------4-4-4------|

G:---
D:---
A:-6- x5
E:---

Verse 2

G:--------------------------------------------------------------|
D:--------------------------------------------------------------|
A:-1-1-1-1-1-1-1-1--4-4-4--6-6-6--1-1-1-1-1-1-1-1--4-4-4--------| x2
E:-------------------------------------------------------4-4-4--|

G:---
D:---
A:-1- x6
E:---

Chorus x1


During guitar solo

G:-------------------|
D:-------------------|
A:-1-1-1--4-4--6-6---| x4
E:-------------------|

Outro

G:---------------------------|
D:---------------------------|
A:-1-1-1-1-1-1--4-4-4-4-4-4--| x2
E:---------------------------|

G:----------------------------|
D:----------------------------|
A:-1-1-1-1-1-1--4-4-4-------1-|
E:--------------------4-4-4---|
Добавлено: 11.03.2012
Другие материалы по этой песне:
  • Аккорды и текст

Страница создана 11.03.2012
http://primanota.ru/guttermouth/shave-the-planet-chords.htm
Привет, Гость.
Предлагаем пройти революционный курс по гитаре.
Подарок от PrimaNota.Ru, забирай!