PrimaNota.ru - самый крупный в мире бесплатный архив песенных текстов, аккордов, табулатур и нот


Guttermouth - Party Of Two - бас-таба, видео

Регистрация Запомнить меня
Войти через:  Facebook Google Twitter Vk Yandex Mail.ru

Guttermouth - Party Of Two - бас-таба, видео

Печатать
Просмотров: 75
Guttermouth - Party Of 2
tab by Casey Barking...so dont copy a paste people
nothings really labeled as far as chorus and verses but youll figure it out
its all in correct order so just follow along
ENJOY!

----------------------------------------------2-0-----------------|
--------------------------0-1-0-------0-1-0-1-----2-1-------------|
--0~~~~0---0--0~~~~---0-3-------3-0-3-----------------3-0~~~------|
------------------------------------------------------------------|

-------------------------------------------------|
-----0-1-0---------0-1~~~~~----1-0---------------|
-0-3-------3--0-3----------0-3-----3-0~~~~~------|
-------------------------------------------------|

-------------------------------------------|
-------------1>----------------------------|
-0>--3>--0>-------0>--3>-------------------|
--------------------------3>---------------|

-------------------------2-0-----------------|
-----0-1-0-------0-1-0-1-----2-1-------------|
-0-3-------3-0-3-----------------3-0~~~------|
---------------------------------------------|

-------------------------------------------------|
-----0-1-0---------0-1~~~~~----1-0---------------|
-0-3-------3--0-3----------0-3-----3-0~~~~~------|
-------------------------------------------------|

-------------------------------------------|
-------------1>----------------------------|
-0>--3>--0>-------0>--3>-------------------|
--------------------------3>---------------|

-------------------------2-0-----------------|
-----0-1-0-------0-1-0-1-----2-1-------------|
-0-3-------3-0-3-----------------3-0~~~------|
---------------------------------------------|

-------------------------------------------------|
-----0-1-0---------0-1~~~~~----1-0---------------|
-0-3-------3--0-3----------0-3-----3-0~~~~~------|
-------------------------------------------------|

-------------|--------------------|
----1>-0>----|----2>>-------------|
-0>-------3>-|--------------------|
-------------|--------------------|

---5-7-8-7-5---5-7-8~~~~--5-8-7-5----------------|
-7-----------7----------7---------7>>------------|
-------------------------------------------------|
-------------------------------------------------|

-------------------------------------------------|
-----0-1-0---------0-1~~~~~----1-0---------------|
-0-3-------3--0-3----------0-3-----3-0~~~~~------|
-------------------------------------------------|

-----0-1-0-------0-1------1-0--------------------|
-0-3-------3-0-3------0-3-----3-0----------------|
-------------------------------------------------|
-------------------------------------------------|

-----------------------------------------|
-------------1>--------------------------|
-0>--3>--0>-------0>--3>-----------------|
--------------------------3>-------------|

------------------------------|
------------------------------|
--0-0-0--0~~~~~---------------|
------------------------------|
Добавлено: 23.06.2012
Другие материалы по этой песне:
  • Аккорды и текст

Страница создана 23.06.2012
http://primanota.ru/guttermouth/party-of-two-chords.htm
Привет, Гость.
Предлагаем пройти революционный курс по гитаре.
Подарок от PrimaNota.Ru, забирай!