PrimaNota.ru - самый крупный в мире бесплатный архив песенных текстов, аккордов, табулатур и нот


Guttermouth - No More - текст песни, бас-таба, видео

Регистрация Запомнить меня
Войти через:  Facebook Google Twitter Vk Yandex Mail.ru

Guttermouth - No More - текст песни, бас-таба, видео

Печатать
Просмотров: 134
Уроки эстрадного вокала в Санкт-Петербурге
Intro /Verse
G|----------------|(x6)---------------------------------|
D|----------------|-------------------------------------|
A|------/7ring---|--------------------5-----------------|
E|----------------|-0-0-0-0-3-3-3-3-/6---6-5-5-5-5-5----|

Chorus x2
G|-------6---------------6---------------6------------7h9-----------|
D|-----5---7-6-5-6-----5---7-6-5-6---------7-6-5-6-/9-----8--8-8-8--|
A|-6-7-------------6-7-------------6-777----------------------------|
E|------------------------------------------------------------------|

(Verse x4)
(Chorus x2)
Bridge x4
G|-----------------------------------|
D|-------10-9-9-9-5-8-8-5-7-7-7-7-5--|
A|-7-7-7-----------------------------|
E|-----------------------------------|

(Chorus x2)

Verse 3
G|(x3)------------------------------|(x1)--------------------------------|
D|----------------------------------|------------------------------------|
A|--------------------5-------------|-/7-7-7-7------------5--------------|
E|-0-0-0-0-3-3-3-3-/6---6-5-5-5-5-5-|----------3-3-3-3-/6---6-5-5-5-5-5--|

(Verse x4)

Outro
G|----------------------------------------------------|
D|----------------------------------------------------|
A|---5---------------5-----------------7r---------7---|
E|-6---6-5--5-5-5--6---6-5--5-5-5--0-0----0ring-------|
Добавлено: 03.06.2012
Другие материалы по этой песне:
  • Аккорды и текст

Страница создана 03.06.2012
http://primanota.ru/guttermouth/no-more-chords.htm
Привет, Гость.
Предлагаем пройти революционный курс по гитаре.
Подарок от PrimaNota.Ru, забирай!