PrimaNota.ru - самый крупный в мире бесплатный архив песенных текстов, аккордов, табулатур и нот


Guttermouth - Looking Out For 1 - таба, видео

Регистрация Запомнить меня
Войти через:  Facebook Google Twitter Vk Yandex Mail.ru

Guttermouth - Looking Out For 1 - таба, видео

Печатать
Просмотров: 142
Song: Looking Out For #1
Artist: Guttermouth
Album: Gusto
Year: 2002
Tabbed by: Jason Kan (jason_902@hotmail.com)

Chords used:

Intro:
    D
E|-----| 
B|-----|
G|--5--| 
D|--5--| 
A|--3--|
D|-----|

Verse & Chorus: verse is palm muted
    D  G  D  A   D  G  A  D
E|-------------------------—-|
B|-------------------------—-|
G|--5-----5------5--------5--|
D|--5--5--5--7---5--5--7--5--| 
A|--3--5--3--7---3--5--7--3—-|
D|-----3-----5------3--5-----|

Solo part: used after the first verse and at the end
E|--5--5—5p3p2-3-3—2h3h5-5-5-5p3p2-------------2-3--3-3p2p0---------------|
B|---------------------------------5--3--3-3h5--------------------0--2--3-|
G|----------------------------------------------------------2--2----------| 
D|------------------------------------------------------------------------| 
A|------------------------------------------------------------------------|
D|------------------------------------------------------------------------|

End: ARGH!
    D
E|-----| 
B|-----|
G|--5--| 
D|--5--| 
A|--3--|
D|-----|

Very simple and great song :)
funni band.
Добавлено: 02.04.2012
Другие материалы по этой песне:
  • Аккорды и текст

Страница создана 02.04.2012
http://primanota.ru/guttermouth/looking-out-for-1-chords.htm
Привет, Гость.
Предлагаем пройти революционный курс по гитаре.
Подарок от PrimaNota.Ru, забирай!