PrimaNota.ru - самый крупный в мире бесплатный архив песенных текстов, аккордов, табулатур и нот


Guttermouth - Lock Down - текст песни, таба, бас-таба, видео

Регистрация Запомнить меня
Войти через:  Facebook Google Twitter Vk Yandex Mail.ru

Guttermouth - Lock Down - текст песни, таба, бас-таба, видео

Печатать
Просмотров: 161
Guttermouth
Album: Teri Yakimoto
Song: Lock Down

This is how you play all parts, just listen to the song for the order.

intro: Played clean until last chord..

e|-7-7---12-12--15-15-15-17-15-14----------|
B|-7-7---12-12--15-15-15-15-15-15----------|
G|-7-7---12-12--14-14-14-14-14-14----------|
D|-----------------------------------------|
A|-----------------------------------------|
E|-----------------------------------------|

e|-14-14-14-15-14-17-14-15-14-14--12-12-7--|
B|-15-15-15-15-15-15-15-15-15-15--12-12-7--|
G|-14-14-14-14-14-14-14-14-14-14--12-12-7--|
D|-----------------------------------------|
A|-----------------------------------------|
E|-----------------------------------------|

e|-7-7---12-12--15-15-15-17-15-14----------|
B|-7-7---12-12--15-15-15-15-15-15----------|
G|-7-7---12-12--14-14-14-14-14-14----------|
D|-----------------------------------------|
A|-----------------------------------------|
E|-----------------------------------------|

e|-14-14-14-15-14-17-14-15-14-14-----------|
B|-15-15-15-15-15-15-15-15-15-15-----------|
G|-14-14-14-14-14-14-14-14-14-14---9-------|
D|---------------------------------9-------|
A|---------------------------------7-------|
E|-----------------------------------------|
                                   10x

verse: 1x by itself after intro, 4x times for the rest of the song.
e|-----------------------------------------|
B|-----------------------------------------|
G|-9999----------77777777------------------|
D|-9999---5555---77777777------------------|
A|-7777---5555---55555555------------------|
E|--------3333-----------------------------|

chorus 1: 3x
e|-----------------------------------------|
B|-----------------------------------------|
G|-----------------------------------------|
D|-9999-9-9999-9-999-999-999-10-10---------|
A|-9999-9-9999-9-999-999-999-10-10---------|
E|-7777-7-7777-7-777-777-777-8--8----------|

chorus 2: 1x
e|-----------------------------------------|
B|-----------------------------------------|
G|----------------------7-7-7-9------------|
D|-9999-7-9999-10-10-10-7-7-7-9------------|
A|-9999-7-9999-10-10-10-5-5-5-7------------|
E|-7777-5-7777-8--8--8---------------------|


bridge: 2x.. ska ticks after bass fill, back to clean.

3x
e|-----------------------------------------|
B|-88888888-12-12-12-----------------------|
G|-99999999-12-12-12-11-11-11-11-11--------|
D|-99999999-12-12-12-12-12-12-12-12--------|
A|-77777777-10-10-10-12-12-12-12-12--------|
E|-------------------10-10-10-10-10--------|

1x
e|-----------------------------------------|
B|-----------------------------------------|
G|-9--9--9--9--9--9--9--9--88-8-8-9--------|
D|-10-10-10-10-10-10-10-10-99-9-9-9--------|
A|-10-10-10-10-10-10-10-10-99-9-9-9--------|
E|-8--8--8--8--8--8--8--8--77-7-7-7--------|
                           ^ fade into distortion on second rotation.

outro solo: it alternates between different fills,
but this is pretty much the basics of it..
e|-------------------------------|
B|-------------------------------|
G|------4------4-7---------------|
D|-2-2----4-4h5------4-5-7-5-4---|
A|-----------------5-----------5-|
E|-------------------------------|

e|-------------------------------|
B|-------------------------------|
G|------4------4-7-7-------------|
D|-2-2----4-4h5------4-5-7-5-4---|
A|-------------------------------|
E|-------------------------------|


Feedback: E_Town_Punk@hotmail.com
Добавлено: 08.04.2012
Другие материалы по этой песне:
  • Аккорды и текст

Страница создана 02.03.2012
http://primanota.ru/guttermouth/lock-down-chords.htm
Привет, Гость.
Предлагаем пройти революционный курс по гитаре.
Подарок от PrimaNota.Ru, забирай!