PrimaNota.ru - самый крупный в мире бесплатный архив песенных текстов, аккордов, табулатур и нот


Guttermouth - Flacidism - текст песни, таба, видео

Регистрация Запомнить меня
Войти через:  Facebook Google Twitter Vk Yandex Mail.ru

Guttermouth - Flacidism - текст песни, таба, видео

Печатать
Просмотров: 117
Guttermouth - Flacidism


e|---------------------------------------------------------------------------|
B|---------------------------------------------------------------------------|
G|----9-10-9----------9-10-9----7-9-8-----7-8-7------------------------------|
D|--7-9-10-9--------7-9-10-9--6-7-9-8--5--7-8-7----7-7-7---------------------|
A|--7-7-8--7--------7-7-8--8--6-6-7-6--5--5-6-5----7-7-7---------------------|
E|--5---------------5---------4--------3-----------5-5-5---------------------|

Chorus:

e|---------------------------------------------------------------------------|
B|---------------------------------------------------------------------------|
G|--------9------------------------------------------------------------------|
D|---8----9------------------------------------------------------------------|
A|---8----7------------------------------------------------------------------|
E|---6-----------------------------------------------------------------------|

Добавлено: 03.03.2012
Другие материалы по этой песне:

Страница создана 01.03.2012
http://primanota.ru/guttermouth/flacidism-chords.htm
Привет, Гость.
Предлагаем пройти революционный курс по гитаре.
Подарок от PrimaNota.Ru, забирай!