PrimaNota.ru - самый крупный в мире бесплатный архив песенных текстов, аккордов, табулатур и нот


Guttermouth - Disneyland - аккорды и текст, таба, видео

Регистрация Запомнить меня
Войти через:  Facebook Google Twitter Vk Yandex Mail.ru

Guttermouth - Disneyland - аккорды и текст, таба, видео

Печатать
Просмотров: 194
Уроки эстрадного вокала в Санкт-Петербурге
Disneyland
Guttermouth



Subject: g/guttermouth/disneyland.crd
From: Rob Jenkins 
Date: July 9, 2005 10:12:34 PM PDT

 Dir Sir or Ma'am,
 For the guitar tab for the Guttermouth song
 Disneyland a Mr. Robert Lauritson has the song
 tabbed as such.

 E|-----------
 B|--------------------------------|
 G|--------------------------------|
 D|--9--9--9--9--9--9---6----7----6
 A|--9--9--9--9--9--9---6----7----6
 E|--7--7--7--7--7--7---4----5----4

 However this is only half the tab. It SHOULD read:

 E|--------------------------------|
 B|--------------------------------|
 G|--------------------------------|
 D|--9--9--9--9--9--9---6----7----6--16--14--13--14--9
 A|--9--9--9--9--9--9---6----7----6--16--14--13--14--9
 E|--7--7--7--7--7--7---4----5----4--14--12--11--12--7

 and repeat througout the song. Obviously I didn't use
 marks for all of the strokes to save room.

 Thanks for clearing up this error so geeks like me can
 feel important.

 Have a good one,
 Rob Jenkins
 Hessian823@yahoo.com


Добавлено: 22.02.2014
Другие материалы по этой песне:
  • Аккорды и текст

Страница создана 20.03.2012
http://primanota.ru/guttermouth/disneyland-chords.htm
Привет, Гость.
Предлагаем пройти революционный курс по гитаре.
Подарок от PrimaNota.Ru, забирай!