PrimaNota.ru - самый крупный в мире бесплатный архив песенных текстов, аккордов, табулатур и нот


Guttermouth - Diamond Studded Bumble Bee - текст песни, таба, видео

Регистрация Запомнить меня
Войти через:  Facebook Google Twitter Vk Yandex Mail.ru

Guttermouth - Diamond Studded Bumble Bee - текст песни, таба, видео

Печатать
Просмотров: 91
-------------------------------------------------------------------------------
                  Guttermouth - Diamond Studded Bumble Bee
-------------------------------------------------------------------------------
Tabbed by: rob
Email: brainwashed_monkey@hotmail.com

Tuning:EADGBe

intro 
e|------------------------------|-------------------------------|
B|------------------------------|-------------------------------|
G|--999999/101010/12121212------|--9~~--10\9~~--10\9~~--10\9~~--|
D|--999999/101010/12121212--x4--|--9~~--10\9~~--10\9~~--10\9~~--|
A|--777777/-8-8-8/10101010------|--7~~---8\7~~---8\7~~---8\7~~--|
E|------------------------------|-------------------------------|

verse
e|------------------------------|
B|------------------------------|
G|--999999-----------1010-------|
D|--999999-101010-77-1010---x4--|
A|--777777-101010-77--8-8-------|
E|----------8-8-8-55------------|

chorus
e|------------------------------|
B|------------------------------|
G|--999999/101010/12121212------|
D|--999999/101010/12121212--x4--|
A|--777777/-8-8-8/10101010------|
E|------------------------------|

           no!        no!        no!        no!
e|--------------------------------------------------|
B|--------------------------------------------------|
G|--999--------999--------999--------999------------|
D|--999-10-77--999-10-77--999-10-77--999-10-77--x2--|
A|--777-10-77--777-10-77--777-10-77--777-10-77------|
E|-------8-55-------8-55-------8-55-------8-55------|

outro
e|----------------------------------------------------------------------------->
B|----------------------------------------------------------------------------->
G|-999999-----------1010-101010101010-----------1111-111111111111-----------12->
D|-999999-101010-77-1010-101010101010-111111-88-1111-111111111111-121212-99-12->
A|-777777-101010-77--8-8--8-8-8-8-8-8-111111-88--9-9--9-9-9-9-9-9-121212-99-10->
E|---------8-8-8-55--------------------9-9-9-66-------------------101010-77---->

e|-------------------------------------------------------------------|
B|-------------------------------------------------------------------|
G|-121212121212-------------1313--131313131313---------------14-15\--|
D|-121212121212-131313-1010-1313--131313131313-141414-111111-14-15\--|
A|-101010101010-131313-1010-1111--111111111111-141414-111111-12-13\--|
E|--------------111111--8-8--------------------121212--9-9-9---------|

i like carrots, but not in stew.  who am i?

| /  slide up
| \  slide down
| pm palm mute
| h  hammer-on
| p  pull-off
| ~  let ring
| +  harmonic
| x  Mute note
===============================================================================
Добавлено: 05.04.2012
Другие материалы по этой песне:
  • Аккорды и текст

Страница создана 05.04.2012
http://primanota.ru/guttermouth/diamond-studded-bumble-bee-chords.htm
Привет, Гость.
Предлагаем пройти революционный курс по гитаре.
Подарок от PrimaNota.Ru, забирай!