PrimaNota.ru - самый крупный в мире бесплатный архив песенных текстов, аккордов, табулатур и нот


Guttermouth - Capitalizing From Plump Mistakes - текст песни, таба, видео

Регистрация Запомнить меня
Войти через:  Facebook Google Twitter Vk Yandex Mail.ru

Guttermouth - Capitalizing From Plump Mistakes - текст песни, таба, видео

Печатать
Просмотров: 107
Guttermouth - Capitalizing From Plump Mistakes

e|---------------------------------------------------------------------------|
B|---------------------------------------------------------------------------|
G|------5-7-9----------------------------------------------------------------|
D|--2-5-5-7-9-9-7-5-2--------------------------------------------------------|
A|--2-5-3-5-7-9-7-5-2--------------------------------------------------------|
E|--0-3-------7-5-3-0--------------------------------------------------------|

kids are screaming"

e|---------------------------------------------------------------------------|
B|---------------------------------------------------------------------------|
G|--9/-----------------------------------------------------------------------|
D|--9/---2-------------------------------------------------------------------|
A|--7/---2-------------------------------------------------------------------|
E|-------0-------------------------------------------------------------------|



Добавлено: 04.03.2012
Другие материалы по этой песне:
  • Аккорды и текст

Страница создана 04.03.2012
http://primanota.ru/guttermouth/capitalizing-from-plump-mistakes-chords.htm
Привет, Гость.
Предлагаем пройти революционный курс по гитаре.
Подарок от PrimaNota.Ru, забирай!