PrimaNota.ru - самый крупный в мире бесплатный архив песенных текстов, аккордов, табулатур и нот


Guttermouth - Big Pink Dress - аккорды и текст, таба, бас-таба, видео

Регистрация Запомнить меня
Войти через:  Facebook Google Twitter Vk Yandex Mail.ru

Guttermouth - Big Pink Dress - аккорды и текст, таба, бас-таба, видео

Печатать
Просмотров: 150
Big Pink Dress
Guttermouth
**************************************************************
****   Band: Guttermouth                              
   ****
****   Song: Big Pink Dress                           
   **** 
****   Album: Musical Monkey                          
   ****
****   Tabbed by: Victor Aguilar                      
   ****
****   E-mail:
the_dark_powerful_and_evil_lord@yahoo.com  ****
****   Http://www.junkmonkey.cjb.net                  
   ****
**************************************************************

One day I was fondeling with my purple helmet warrior
when I decided to tab a
song. G I tabbed this song. It was kind of hard
because I was tabbing it with
one hand; but it's correct.

Standard Tuning           
P= Palm Mute
/= Slide

Distortion throughout song

Before Verse
e-----------
B-----------
G-----------
D-7-7--7-7--
A-7-7--7-7--
E-5-5--5-5--

Verse
e------------------------------- 
B------------------------------- X4
G-------------------------------
D-7-7-7-7-7-7/5-7-7-7-7-7-7/10--
A-7-7-7-7-7-7/5-7-7-7-7-7-7/10--
E-5-5-5-5-5-5/3-5-5-5-5-5-5/8---
    P P P P     P P P P P P

Chorus
e-----------    ---------- 
B-----------    ---------- X4
G----------- OR ----5-7--- (C whichever is easier for you)
D-7-10-12-5-    --7-5-7-5-
A-7-10-12-5-    --7-3-5-5-
E-5-8--10-3-    --5-----3-

(Verse X4)
(Chorus X8)

Next Part
e-----------------------------------------
B-----------------------------------------
G-----------------------------------------
D-7-7-7-7-5-5-5-5-12-12-12-12-12-12-12-12-
A-7-7-7-7-5-5-5-5-12-12-12-12-12-12-12-12-
E-5-5-5-5-3-3-3-3-10-10-10-10-10-10-10-10-

              OR                              X4

E---------------------------------
B---------------------------------
G-----------------7-7-7-7-7-7-7-7-
D-7-7-7-7-5-5-5-5-7-7-7-7-7-7-7-7-
A-7-7-7-7-5-5-5-5-5-5-5-5-5-5-5-5-
E-5-5-5-5-3-3-3-3-----------------

Part After That
E----------    -----------
B----------    ----------- X4
G--------5- OR -----------
D-7---7--5-    -7---7--10- ( Listen to song to find out how long to 
A-7---7--3-    -7---7--10-   hold the note)
E-5---5----    -5---5--8--

(Chorus X7)

End the song with:
E-----------
B-----------
G-----------
D-7-7-7-7-7-
A-7-7-7-7-7-
E-5-5-5-5-5-	
     
Добавлено: 24.08.2013
Другие материалы по этой песне:
  • Аккорды и текст

Страница создана 09.04.2012
http://primanota.ru/guttermouth/big-pink-dress-chords.htm
Привет, Гость.
Предлагаем пройти революционный курс по гитаре.
Подарок от PrimaNota.Ru, забирай!